Oops, an error
Loading. Please wait.

Story Of My Life tab

version 8
version 8

Whole song

Interactive

928 views 9 this week
no commentswrite comment
1 2 3 4 5
3 more votes to show rating
add to favorites
×
Save as Personal and add changes to this tab that will be seen only by you. Learn more ›
×
You can save this tab as Personal to edit and correct it or add notes. All changes will be seen only by you. Learn more »
launch autoscroll
font size
0
reset
how to read this tab
guitar tuner
edit
Autoscroll
slow
fast
+/-
esc
set tempo
stop
About this tab version
In this version there are tabs for all the picked parts (intro, verse, prechorus, bridge) and strumming pattern for the chorus. Was this info helpful? Yes No
[Intro]
  Am                                 Am
e|-----------------0---------------|-----------------0---------------|
B|-------1---------------1---------|-------1---------------1---------|
G|-----------2---------------2-----|-----------2---------------2-----|
D|-----2-------2-------2-------2---|-----2-------2-------2-------2---|
A|-0-------------------------------|-0-------------------------------|
E|---------------------------------|---------------------------------|
   1 + 2 + 3 + 4 + 5 + 6 + 7 + 8 +   1 + 2 + 3 + 4 + 5 + 6 + 7 + 8 +
  C                Cadd11            C
e|---------------------------------|-------------------------------------|
B|-------1--------------1----------|-------1---------------1-------------|
G|-----------0---------------0-----|-----------0---------------0---------|
D|-0h2---------2---3-----------3---|-2-----------2-------2-------2-------|
A|-3--------------(3)--------------|(3)--------------3-------------------|
E|---------------------------------|---------------------------------|---|
   1 + 2 + 3 + 4 + 5 + 6 + 7 + 8 +   1 + 2 + 3 + 4 + 5 + 6 + 7 + 8 +   | x2
                                                                  -----

[Verse]
  Am                                 Am
e|-----------------0---------------|-----------------0---------------|
B|-------1---------------1---------|-------1---------------1---------|
G|-----------2---------------2-----|-----------2---------------2-----|
D|-----2-------2-------2-------2---|-----2-------2-------2-------2---|
A|-0-------------------------------|-0-------------------------------|
E|---------------------------------|---------------------------------|
   1 + 2 + 3 + 4 + 5 + 6 + 7 + 8 +   1 + 2 + 3 + 4 + 5 + 6 + 7 + 8 +

  C                Cadd11            C
e|---------------------------------|-------------------------------------|
B|-------1---------------1---------|-------1---------1-------------------|
G|-----------0---------------0-----|-----------0-----------0-------------|
D|-0h2---------2---3-----------3---|-2-----------2-------2-----2---------|
A|-3--------------(3)--------------|(3)--------------------------3-------|
E|---------------------------------|---------------------------------|---|
   1 + 2 + 3 + 4 + 5 + 6 + 7 + 8 +   1 + 2 + 3 + 4 + 5 + 6 + 7 + 8 +   | x2
                                                                  -----
  Am                                F
e|-----------------0---------------|-----------------0---------------|
B|-------1---------------1---------|-------1---------------1---------|
G|-----------2---------------2-----|-----2-----2---------------2-----|
D|-----2-------2-------2-------2---|-3-----------3-------3-------3---|
A|-0-------------------------------|---------------------------------|
E|---------------------------------|---------------------------------|
   1 + 2 + 3 + 4 + 5 + 6 + 7 + 8 +   1 + 2 + 3 + 4 + 5 + 6 + 7 + 8 +

  C                Cadd11            C
e|---------------------------------|---------------------------------|
B|-------1-------------1-------1---|-------1---------1---------------|
G|-----------0---------------------|-----------0-----------0---------|
D|-0h2---------2---3-------0-------|-2-----------2-------2-----2-----|
A|-3--------------(3)--------------|(3)--------------------------3---|
E|---------------------------------|---------------------------------|
   1 + 2 + 3 + 4 + 5 + 6 + 7 + 8 +   1 + 2 + 3 + 4 + 5 + 6 + 7 + 8 +

  Am                                F
e|-----------------0---------------|-----------------0---------------|
B|-------1---------------1---------|-------1---------------1---------|
G|-----------2---------------2-----|-----2-----2---------------2-----|
D|-----2-------2-------2-------2---|-3-----------3-------3-------3---|
A|-0-------------------------------|---------------------------------|
E|---------------------------------|---------------------------------|
   1 + 2 + 3 + 4 + 5 + 6 + 7 + 8 +   1 + 2 + 3 + 4 + 5 + 6 + 7 + 8 +

  C                Cadd11            C
e|---------------------------------|---------------------------------|
B|-------1---------------1---------|-------1---------1---------------|
G|-----------0---------------0-----|-----------0-----------0---------|
D|-0h2---------2---3-----------3---|-2-----------2-------2-----2-----|
A|-3--------------(3)--------------|(3)--------------------------3---|
E|---------------------------------|---------------------------------|
   1 + 2 + 3 + 4 + 5 + 6 + 7 + 8 +   1 + 2 + 3 + 4 + 5 + 6 + 7 + 8 +


[Prechorus]
  F                G                Am
e|---------------------------------|-----------------0---------------|
B|-------1---------------3---------|-------1---------------1---------|
G|-----------2---------------4-----|-----------2---------------2-----|
D|-----3-------3-------5-------5---|-----2-------2-------2-------2---|
A|---------------------------------|-0-------------------------------|  x3
E|-1---------------3---------------|---------------------------------|
   1 + 2 + 3 + 4 + 5 + 6 + 7 + 8 +   1 + 2 + 3 + 4 + 5 + 6 + 7 + 8 +

e|---------------------------------|---------------------------------|
B|-0---------------0---------------|-0---------------0---------------|
G|-------0---------------0---------|-------0-------------------------|
D|-----------0---------------0-----|-----------0---------------------|
A|---------------------------------|---------------------------------|
E|-3-----------3---------------3---|-------------3-------------------|
   1 + 2 + 3 + 4 + 5 + 6 + 7 + 8 +   1 + 2 + 3 + 4 + 5 + 6 + 7 + 8 +

[Chorus]

strumming pattern:
↓   ↓ ↑   ↑ ↓ ↑
1 + 2 + 3 + 4 +

      C
The story of my life I take her home
    F                                   Am
I drive all night to keep her warm and time
    F  C
Is frozen (the story of, the story of)
     C
The story of my life I give her hope
    F                                Am          F
I spend her love until she's broke inside
                C
The story of my life (the story of, the story of)


[Verse]
  Am                                 Am
e|-----------------0---------------|-----------------0---------------|
B|-------1---------------1---------|-------1---------------1---------|
G|-----------2---------------2-----|-----------2---------------2-----|
D|-----2-------2-------2-------2---|-----2-------2-------2-------2---|
A|-0-------------------------------|-0-------------------------------|
E|---------------------------------|---------------------------------|
   1 + 2 + 3 + 4 + 5 + 6 + 7 + 8 +   1 + 2 + 3 + 4 + 5 + 6 + 7 + 8 +

  C                Cadd11            C
e|---------------------------------|-------------------------------------|
B|-------1--------------1----------|-------1---------------1-------------|
G|-----------0---------------0-----|-----------0---------------0---------|
D|-0h2---------2---3-----------3---|-2-----------2-------2-------2-------|
A|-3--------------(3)--------------|(3)--------------3-------------------|
E|---------------------------------|---------------------------------|---|
   1 + 2 + 3 + 4 + 5 + 6 + 7 + 8 +   1 + 2 + 3 + 4 + 5 + 6 + 7 + 8 +   | x2
                                                                  -----
  Am                                F
e|-----------------0---------------|-----------------0---------------|
B|-------1---------------1---------|-------1---------------1---------|
G|-----------2---------------2-----|-----2-----2---------------2-----|
D|-----2-------2-------2-------2---|-3-----------3-------3-------3---|
A|-0-------------------------------|---------------------------------|
E|---------------------------------|---------------------------------|
   1 + 2 + 3 + 4 + 5 + 6 + 7 + 8 +   1 + 2 + 3 + 4 + 5 + 6 + 7 + 8 +

  C                Cadd11            C
e|---------------------------------|---------------------------------|
B|-------1-------------1-------1---|-------1---------------1---------|
G|-----------0---------------------|-----------0---------------0-----|
D|-0h2---------2---3-------0-------|-2-----------2-------2-------2---|
A|-3--------------(3)--------------|(3)--------------3---------------|
E|---------------------------------|---------------------------------|
   1 + 2 + 3 + 4 + 5 + 6 + 7 + 8 +   1 + 2 + 3 + 4 + 5 + 6 + 7 + 8 +

  Am                                F
e|-----------------0---------------|-----------------0---------------|
B|-------1---------------1---------|-------1---------------1---------|
G|-----------2---------------2-----|-----2-----2---------------2-----|
D|-----2-------2-------2-------2---|-3-----------3-------3-------3---|
A|-0-------------------------------|---------------------------------|
E|---------------------------------|---------------------------------|
   1 + 2 + 3 + 4 + 5 + 6 + 7 + 8 +   1 + 2 + 3 + 4 + 5 + 6 + 7 + 8 +

  C                Cadd11            C
e|---------------------------------|---------------------------------|
B|-------1--------------1----------|-------1---------------1---------|
G|-----------0---------------0-----|-----------0---------------0-----|
D|-0h2---------2---3-----------3---|-2-----------2-------2-------2---|
A|-3--------------(3)--------------|(3)--------------3---------------|
E|---------------------------------|---------------------------------|
   1 + 2 + 3 + 4 + 5 + 6 + 7 + 8 +   1 + 2 + 3 + 4 + 5 + 6 + 7 + 8 +


[Prechorus]
  F                G                Am
e|---------------------------------|-----------------0---------------|
B|-------1---------------3---------|-------1---------------1---------|
G|-----------2---------------4-----|-----------2---------------2-----|
D|-----3-------3-------5-------5---|-----2-------2-------2-------2---|
A|---------------------------------|-0-------------------------------|  x3
E|-1---------------3---------------|---------------------------------|
   1 + 2 + 3 + 4 + 5 + 6 + 7 + 8 +   1 + 2 + 3 + 4 + 5 + 6 + 7 + 8 +

e|---------------------------------|---------------------------------|
B|-0---------------0---------------|-0---------------0---------------|
G|-------0---------------0---------|-------0-------------------------|
D|-----------0---------------0-----|-----------0---------------------|
A|---------------------------------|---------------------------------|
E|-3-----------3---------------3---|-------------3-------------------|
   1 + 2 + 3 + 4 + 5 + 6 + 7 + 8 +   1 + 2 + 3 + 4 + 5 + 6 + 7 + 8 +


[Chorus]

strumming pattern:
↓   ↓ ↑   ↑ ↓ ↑
1 + 2 + 3 + 4 +

      C
The story of my life I take her home
    F                                   Am
I drive all night to keep her warm and time
    F  C
Is frozen (the story of, the story of)
     C
The story of my life I give her hope
    F                                Am          F
I spend her love until she's broke inside
                C
The story of my life (the story of, the story of)


[Bridge]
(Guitar 1)
  F                                 F
e|---------------------------------|---------------------------------|
B|-------1---------------1---------|-------1---------------1---------|
G|-----------2---------------2-----|-----------2---------------2-----|
D|-----3-------3-------3-------3---|-----3-------3-------3-------3---|
A|---------------------------------|---------------------------------|
E|-1---------------1---------------|-1---------------1---------------|
   1 + 2 + 3 + 4 + 5 + 6 + 7 + 8 +   1 + 2 + 3 + 4 + 5 + 6 + 7 + 8 +

  G                                 G
e|---------------------------------|-------------------------------------|
B|-------0---------------0---------|-------0---------0-------------------|
G|-----------0---------------0-----|-----------0-------------------------|
D|-----0-------0-------0-------0---|-----0-------0-----------------------|
A|---------------------------------|-------------------------------------|
E|-3---------------3---------------|-3-------------------------------|---|
   1 + 2 + 3 + 4 + 5 + 6 + 7 + 8 +   1 + 2 + 3 + 4 + 5 + 6 + 7 + 8 +   | x2
                                                                  -----

(Guitar 2)
e|---------------------------------|---------------------------------|
B|-1---------------0---------------|---------------------------------|
G|---------------------------------|-2---------------0---------------|
D|---------------------------------|---------------------------------|
A|---------------------------------|---------------------------------|
E|---------------------------------|---------------------------------|
   1 + 2 + 3 + 4 + 5 + 6 + 7 + 8 +   1 + 2 + 3 + 4 + 5 + 6 + 7 + 8 +

e|---------------------------------|-------------------------------------|
B|-0-------------------------------|-------------------------------------|
G|-----------------2---------------|-0-----------------------------------|
D|---------------------------------|-------------------------------------|
A|---------------------------------|-------------------------------------|
E|---------------------------------|---------------------------------|---|
   1 + 2 + 3 + 4 + 5 + 6 + 7 + 8 +   1 + 2 + 3 + 4 + 5 + 6 + 7 + 8 +   | x2
                                                                  -----

[Chorus]

strumming pattern:       *strum once
↓   ↓ ↑   ↑ ↓ ↑
1 + 2 + 3 + 4 +

      C*                C*
The story of my life I take her home
    F*                F*               Am*
I drive all night to keep her warm and time
       C
Is frozen
     C
The story of my life I give her hope
    F                                Am          F
I spend her love until she's broke inside
                C
The story of my life (the story of, the story of)
                   F
The story of my life
            Am     F
The story of my life (the story of, the story of)
            C*
The story of my life

            
            
Suggest correction
Creating personal tab
Creating personal tab
You can edit any tab online and save it as your Personal.

You can edit, replace or remove any tab part or add personal notes – all changes will be seen only by you.

Personal tabs can be accessed anytime from any device, even offline.
Learn more »
Give kudos to tab author, rate the tab!
1 2 3 4 5
comments
print report bad tab
guest
You may want to rate the tab now too:
select rating
Wanna post a correction for this tab? Suggest correction