Oops, an error
Loading. Please wait.

Temporary Fix chords

version 3
version 3

Whole song

  • Version is adapted to standard tuning, there are t... Show more
316 views 6 this week
no commentswrite comment
1 2 3 4 5
2 more votes to show rating
add to favorites
×
Save as Personal and add changes to this tab that will be seen only by you. Learn more ›
×
You can save this tab as Personal to edit and correct it or add notes. All changes will be seen only by you. Learn more »
launch autoscroll
font size
0
reset
transpose
0
reset
display chords
guitar tuner
edit
Autoscroll
slow
fast
+/-
esc
set tempo
stop
Author
Difficulty
About this tab version
Version is adapted to standard tuning, there are tabs for intro/interlude and verse. Was this info helpful? Yes No
Strumming
There is no strumming pattern for this song yet. and get +5 IQ
[Intro]
E       A


[Verse 1: Niall]

E
Saw your body language and I know how you're feeling
E
You look like the kind of girl that's tired of speaking
C#m                            B                     E        A
Standing with somebody but he doesn't know what you like
E
You caught my attention you were looking at me first
E
All that I can see's you waking up in my t-shirt
     C#m                               B                  E   
If you're not hooked on anything right now I can be your vice


[Prechorus: Liam]

C#m              B
All you need to know is


[Chorus: All & Niall]

         E
You can call me, when you're lonely
          E
When you can't sleep, I'll be your temporary fix
        C#m          B                A
You control me, even if it's just tonight
        E
You can call me, when you feel like
          E
I'm your good time, I'll be your temporary fix
        C#m              B                    A
You can own me and we'll call this what you like
        -mute
Let me be your good night


[Interlude]

E         A


[Verse 2: Harry]

     E
The night is on your lips and I feel like I'm locked in
E
There's a million lights I don't care if they watching
   C#m                         B                       E        A
Ya body's saying everything I don't have to read your mind
E
Feel you on my neck while I'm calling a taxi
E
Climbing over me while I climb in the backseat
C#m                            B                E
Now we're taking off now we're taking it off tonight


[Prechorus: Liam]

C#m                  B
All you need to know is


[Chorus: All & Harry]

         E
You can call me, when you're lonely
          E
When you can't sleep, I'll be your temporary fix
        C#m          B                A
You control me, even if it's just tonight
        E
You can call me, when you feel like
          E
I'm your good time, I'll be your temporary fix
        C#m              B                    A
You can own me and we'll call this what you like
        -mute
Let me be your good night


[Bridge: Louis]

C#m                     B        A
    We can roll in the darkness
        A                    B      C#m
Let me touch you where your heart is
               C#m         B       A
And if you're feeling the weakness
                                   E
Well I told you baby that you can call me
E                                  C#m    B   A
I'll be your temporary fix you can call me


[Chorus: All & Harry]

         E
You can call me, when you're lonely
          E
When you can't sleep, I'll be your temporary fix
        C#m          B                A
You control me, even if it's just tonight
        E
You can call me, when you feel like
          E
I'm your good time, I'll be your temporary fix
        C#m              B                    A
You can own me and we'll call this what you like
        -mute            E
Let me be your good night


--------------------------------------------------------------------------------------------------------------
 

[Intro/Interlude]

e|-------------------------------------|
B|-------------------------------------|
G|---1---1---1---1---1-----6-----8---8-|
D|-2---2---2---2---2---2/7---7/9---9---|
A|-------------------------------------|
E|-------------------------------------|


[Verse]

e|---------------------------------|
B|---------------------------------|
G|---1---1---1---1---1---1---4---4-|
D|-2---2---2---2---2---2---6---6---|
A|---------------------------------| x2
E|---------------------------------|

e|---------------------------------|-------------------------------------|
B|---------------------------------|-------------------------------------|
G|---1---1---1---1---4---4---4---4-|---1---1---1---1---1-----6-----8---8-|
D|-2---2---2---2---4---4---4---4---|-2---2---2---2---2---2/7---7/9---9---|
A|---------------------------------|-------------------------------------|
E|---------------------------------|-------------------------------------|

e|---------------------------------|
B|---------------------------------|
G|---1---1---1---1---1---1---4---4-|
D|-2---2---2---2---2---2---6---6---|
A|---------------------------------| x2
E|---------------------------------|

e|---------------------------------|---------------------------------|
B|---------------------------------|---------------------------------|
G|---1---1---1---1---4---4---4---4-|---1---1---1---1---1---1---1---1-|
D|-2---2---2---2---4---4---4---4---|-2---2---2---2---2---2---2---2---|
A|---------------------------------|---------------------------------|
E|---------------------------------|---------------------------------|



************************************

| /  Slide up

************************************

            
            
Suggest correction
Creating personal tab
Creating personal tab
You can edit any tab online and save it as your Personal.

You can edit, replace or remove any tab part or add personal notes – all changes will be seen only by you.

Personal tabs can be accessed anytime from any device, even offline.
Learn more »
Give kudos to tab author, rate the tab!
1 2 3 4 5
comments
print report bad tab
guest
You may want to rate the tab now too:
select rating
Wanna post a correction for this tab? Suggest correction