Oops, an error
Loading. Please wait.

Walking In The Wind intro tab

version 1
version 1

Intro

  • It's correct. And it's paired with the chord chart in capo 3.
2,806 views 15 this week
2 commentsread comments
1 2 3 4 5
x 18
add to favorites
×
Save as Personal and add changes to this tab that will be seen only by you. Learn more ›
×
You can save this tab as Personal to edit and correct it or add notes. All changes will be seen only by you. Learn more »
launch autoscroll
font size
0
reset
how to read this tab
guitar tuner
edit
Autoscroll
slow
fast
+/-
esc
set tempo
stop
Difficulty
intermediate
-------------------------------------------------------------------------------
                             Walking In The Wind - One Direction
-------------------------------------------------------------------------------

Tabbed by: Danbo
E-mail:

Tuning:

e|---------------------------------------------------------------------------|
B|-8-9-11-13-13-----4-4-3----------------------------------------------------|
G|------------------------5-3------------------------------------------------|
D|---------------------------------------------------------------------------|
A|-6-8-10-11-11-----3-3-1----------------------------------------------------|
E|------------------------3-1------------------------------------------------|


Enjoy!


            
            
Suggest correction
Creating personal tab
Creating personal tab
You can edit any tab online and save it as your Personal.

You can edit, replace or remove any tab part or add personal notes – all changes will be seen only by you.

Personal tabs can be accessed anytime from any device, even offline.
Learn more »
comments
print report bad tab
2 comments total.
0 reply
/cava/ 10 Dec 23, 2015 05:16 AM

Lack of accuracy. fai schifo fai schifo fai schifo fai schifo f a i s c h i f o fai schi fo

+1 reply
MattySievers 448 Feb 10, 2016 07:10 AM

Worked for me!

guest
Wanna post a correction for this tab? Suggest correction