Oops, an error
Loading. Please wait.

What Makes You Beautiful Bass Tab

version 2
version 2

Whole song

Interactive

9,829 views 3 this week
no commentswrite comment
1 2 3 4 5
accurate
x 4
add to favorites
launch autoscroll
font size
0
reset
guitar tuner
Tab Pro tools
  • play this tab
  • loop segment
  • change instrument
  • show fretboard
  • metronome
×
Best way to learn
"What Makes You Beautiful"
Autoscroll
slow
fast
+/-
esc
set tempo
stop
Contributor
What Makes You Beautiful
One Direction
Tabbed by: avill616@yahoo.com

Into 
G|----------------------------------------|
D|----------------------------------------|
A|----------------------------------------|
E|-0--0-5--5-7--7-7--7-0--0-5--5-7--7-7-7-|

Verse 
G|---------------------|
D|---------------------|
A|---------------------|3x
E|-0--0-5--5-7--7-7--7-|

Prechorus 
G|-----------------------------------|
D|-----------------------------------|
A|-----------------------------------|2x
E|-0-0-0-0--5-5-5-5--7-7-7-7-7-7-7-7-|

Chorus1 
G|----------------------------------|    |--------------------------------|
D|----------------------------------|    |--------------------------------|
A|----------------------------------|3x  |--------------------------------|
E|-0-0-0-0--5-5-5-5--7-7-9-7--9-7-5-|    |-0-0-0-0-0-5-5-5-5-7-7-7-7--/7\-|

G|----------------------------------|    |---------------------------|
D|----------------------------------|    |---------------------------|
A|----------------------------------|3x  |---------------------------|
E|-0-0-0-0--5-5-5-5--7-7-9-7--9-7-5-|    |-0-0-0-0-0-5-5-5-5-7-7-7-7-|

G|----------------------------------|
D|----------------------------------|
A|--------------------------7--7--7-|
E|-0-0-0-0-5-5-5-5-7-7-7-7----------|

Post chorus                                Bridge 
G|--------------------|                    |-------------------------|
D|--------------------| repeat verse       |-------------------------|
A|--------------------| repeat prechorus   |-------------------------|
E|-0--0-5--5-7--7-7-7-| repeat chorus      |-0-0-0-0-5-5-5-5-7-7-7-7-|

Chorus2 
G|---------------|
D|---------------|
A|---------------|4x  
E|-0~---5~----7~-|       repeat chorus1

Last chorus
G|----------------------------------|
D|----------------------------------|
A|--------------------------7--7--7-|
E|-0-0-0-0-5-5-5-5-7-7-7-7----------|
comments
print report bad tab
I want to post or [tab]
guest
You may want to rate the tab now too:
select rating
Please do not post tabs as comments. Select "correction" instead!