Oops, an error
Loading. Please wait.

You And I bass

595 views 3 this week
no commentswrite comment
1 2 3 4 5
3 more votes to show rating
add to favorites
×
Save as Personal and add changes to this tab that will be seen only by you. Learn more ›
×
You can save this tab as Personal to edit and correct it or add notes. All changes will be seen only by you. Learn more »
launch autoscroll
font size
0
reset
guitar tuner
edit
Autoscroll
slow
fast
+/-
esc
set tempo
stop
-------------------------------------------------------------------------------
                             YOU AND I - One Direction
-------------------------------------------------------------------------------
Tabbed by: Lisa Högrelius
E-mail: lisahogrelius@gmail.com

Tuning: Standard

[VERSE 1]
I figured it out
I figured it out from black and white
Seconds and hours
Maybe they had to take some time

I know how it goes
I know how it goes for wrong and right
Silence and sound
Did they ever hold each other
Tight like us
Did they ever fight like us


[CHORUS]
G|----------------|---------------|---------------|---------------|
D|----------------|---------------|---------------|---------------|
A|-------1--------|4-----4--------|---------------|---------------|
E|-2--4-----------|--------2------|1-------2------|4--4-44-2--4--1|
   1 + 2 + 3 + 4 + 1 + 2 + 3 + 4 + 1 + 2 + 3 + 4 + 1 + 2 + 3 + 4 +
You and I, we don't wanna be like them, we can make it till the end, no nothing can come between you and I


[VERSE 2]
G|----------------|---------------|---------------|---------------|
D|----------------|---------------|---------------|---------------|
A|----------------|------1--------|4---4----------|---------------|
E|----------------|2--4-----------|--------2---2--|4---4---4---4--|
   1 + 2 + 3 + 4 + 1 + 2 + 3 + 4 + 1 + 2 + 3 + 4 + 1 + 2 + 3 + 4 +
                Oh you and I                          I figured it out

G|----------------|---------------|---------------|---------------|
D|----------------|---------------|---------------|---------------|
A|----------------|---------------|4---4---4---4--|---------------|
E|-4---4---4---3--|1---1---1---1--|---------------|4---4---4---4--|
   1 + 2 + 3 + 4 + 1 + 2 + 3 + 4 + 1 + 2 + 3 + 4 + 1 + 2 + 3 + 4 +
Saw the mistakes of up and down, meet in the middle,
cause there's always room for common ground, see what it's like

G|----------------|---------------|---------------|---------------|
D|----------------|---------------|---------------|---------------|
A|----------------|---------------|4---4---4---4--|---------------|
E|-4---4---4---3--|1---1---1---1--|---------------|4-----3-1------|
   1 + 2 + 3 + 4 + 1 + 2 + 3 + 4 + 1 + 2 + 3 + 4 + 1 + 2 + 3 + 4 +
See what it's like for day and night,
never together, cause they see things in a different light like us
they never 
                                   [CHORUS 2]
G|----------------|---------------|---------------|---------------|
D|----------------|---------------|---------------|---------------|
A|-------3--------|---------------|------1-----1--|4---4-4--------|
E|-4-------1------|---------------|2--4-----------|--------2---2--|
   1 + 2 + 3 + 4 + 1 + 2 + 3 + 4 + 1 + 2 + 3 + 4 + 1 + 2 + 3 + 4 +
tried like us                      You and I, we don't wanna be like them

G|----------------|---------------|---------------|---------------|
D|----------------|---------------|---------------|---------------|
A|----------------|---------------|------1-----1--|4---4-4--------|
E|-1---1---2---2--|4-----4---4-4--|2--4-----------|--------2---2--|
   1 + 2 + 3 + 4 + 1 + 2 + 3 + 4 + 1 + 2 + 3 + 4 + 1 + 2 + 3 + 4 +
We can make it till the end, no nothing can come between you and I,
not even the gods above

G|----------------|---------------|---------------|---------------|
D|----------------|---------------|---------------|---------------|
A|----------------|---------------|---------------|---------------|
E|-1---1---2------|---------------|---------------|---------------|
   1 + 2 + 3 + 4 + 1 + 2 + 3 + 4 + 1 + 2 + 3 + 4 + 1 + 2 + 3 + 4 +
Can separate the two of us

REPEAT FROM THE 3RD BAR IN CHORUS 2

            
            
Suggest correction
Creating personal tab
Creating personal tab
You can edit any tab online and save it as your Personal.

You can edit, replace or remove any tab part or add personal notes – all changes will be seen only by you.

Personal tabs can be accessed anytime from any device, even offline.
Learn more »
Give kudos to tab author, rate the tab!
1 2 3 4 5
comments
print report bad tab
guest
You may want to rate the tab now too:
select rating
Wanna post a correction for this tab? Suggest correction