Oops, an error
Loading. Please wait.

Mesero Tab

79 views 3 this week
no commentswrite comment
1 2 3 4 5
3 more votes to show rating
add to favorites
launch autoscroll
font size
0
reset
how to read this tab
guitar tuner
Autoscroll
slow
fast
+/-
esc
set tempo
stop
Help us to improve Ultimate-Guitar.com Take our survey!
×
Esta rola esta buenisima, espero que les guste como la saque
y que les salga como es...

e||----------------------------------||
B||----------------------------------||
G||-9-9-9-9--------------------------||  (x3)
D||-9-9-9-9-9-9-9-9-11-11-9-11-11-11-||
A||-7-7-7-7-9-9-9-9-11-11-9-11-11-11-||
E||---------7-7-7-7-9--9--7-9--9--9--||

e||----------------------------------||
B||-------------------------------9--||
G||-7-7-7-7-7-7-7-9-9-9-9-9-9-9---9--||
A||-7-7-7-7-7-7-7-9-9-9-9-9-9-9---7--||
E||-5-5-5-5-5-5-5-7-7-7-7-7-7-7------||

                           C#5
Mesero traigame otra por favor...
                             A5
no quiero volver a pensar en ella,
  B5             E5
lo se, lo se, es una mierda,
       C#5          B5                    A5
si tan solo pudiera ver como se encuentra sola,
             B5
ella no esta muerta...

e||------------------------------||
B||------------------------------||
G||------------------------------||
D||---------11-11-9-9-7----------||
A||------------------------------||
E||------------------------------||

e||----------------------------------||
B||----------------------------------||
G||-9-9-9-9--------------------------||  (x3)
D||-9-9-9-9-9-9-9-9-11-11-9-11-11-11-||
A||-7-7-7-7-9-9-9-9-11-11-9-11-11-11-||
E||---------7-7-7-7-9--9--7-9--9--9--||

e||----------------------------------||
B||-------------------------------9--||
G||-7-7-7-7-7-7-7-9-9-9-9-9-9-9---9--||
A||-7-7-7-7-7-7-7-9-9-9-9-9-9-9---7--||
E||-5-5-5-5-5-5-5-7-7-7-7-7-7-7------||

E5                      B5
Si solamente verla me hace sentir asi,
       C#5
si tan solo yo pudiera dar,
A5
un poco mas de mi...

         E5           A5
Traigame otra, que no me conformo asi,
         E5           A5
traigame otra, que no puedo ni dormir,
   B5
lo cual me enloquece

Traigame otra...

e||-------------------||
B||-------------------||
G||-9-----------------||
D||-9---9---11---7----||
A||-7---9---11---7----||
E||-----7---9----5----||

Solo.

e||-0---0---0---0---0---0---0---0---||
B||---0---0---0---0---0---0---0---0-||
G||---------------------------------||
D||---------------------------------||
A||---------------------------------||
E||---------------------------------||

e||-2---2---2---2---2---2---2---2---||
B||---0---0---0---0---0---0---0---0-||
G||---------------------------------||
D||---------------------------------||
A||---------------------------------||
E||---------------------------------||

e||-4---4---4---4---4---4---4---4---||
B||---0---0---0---0---0---0---0---0-||
G||---------------------------------||
D||---------------------------------||
A||---------------------------------||
E||---------------------------------||

e||-5---5---5---5---5/7 7-7-7-7-7-7-||
B||---0---0---0---0-----0-0-0-0-0-0-||
G||---------------------------------||
D||---------------------------------||
A||---------------------------------||
E||---------------------------------||

e||---------||----------------------||
B||---------||----------------------||
G||-9-8---8-||---8-9-8---8---(x1000)||
D||-----9---||-9-------9------------||
A||---------||----------------------||
E||---------||----------------------||

e||---------------------------------||
B||---------------------------------||
G||---8-9-11-9-8---8---8-9-11-9-8---||
D||-9------------9---9--------------||
A||---------------------------------||
E||---------------------------------||

e||----------------------------------||
B||----------------------------------||
G||---8-9-11-9-8---8---8-9-11-9-8-9-8||
D||-9------------9---9---------------||
A||----------------------------------||
E||----------------------------------||

e||----------------------------------||
B||----------------------------------||
G||9-9-9-9-11-11-11-11-9-9-9-9-11----||
D||----------------------------------||
A||----------------------------------||
E||----------------------------------||

         E5           A5
Traigame otra, que no me conformo asi,
         E5           A5
traigame otra, que no puedo ni dormir,

E5           B5         C#5        A5p.m
Si solamente verla me hace sentir asi,
E5                B5
si tan solo yo pudiera dar,
   C#5         A5
un poco mas de mi...

         E5           A5
Traigame otra, que no me conformo asi,
         E5           A5
traigame otra, que no puedo ni dormir,
         E5
Traigame otra...

Esa es la rola completita!!! Ya saben... comentarios,
dudas o errores al mail...
Suggest correction
Give kudos to tab author, rate the tab!
1 2 3 4 5
comments
print report bad tab
guest
You may want to rate the tab now too:
select rating
Wanna post a correction for this tab? Suggest correction