Oops, an error
Loading. Please wait.

All The Way Tab

1,706 views 1 this week
1 commentread comment
1 2 3 4 5
please rate
add to favorites
launch autoscroll
font size
0
reset
how to read this tab
guitar tuner
Autoscroll
slow
fast
+/-
esc
set tempo
stop
Help us to improve Ultimate-Guitar.com Take our survey!
×
Author
Difficulty
"All the Way"
by One Man Army
From the 2004 Alkaline Trio/One Man Army Split;
BYO Split Series, Volume V (BYO 096)

Transcribed by Steve Filpansick

***To play along with the album, tune down 1/2 Step!!! (D#/Eb)***
_________________________________________________________________


Chords used:

    E          E2         Eb         B          B2
 _______    _______    _______    _______    _______
e-------    -------    -------    -------    -------|
B-------    -------    -------    -------    -------|
G-------    ---9---    ---8---    ---4---    -------|
D---2---    ---9---    ---8---    ---4---    ---9---|
A---2---    ---7---    ---6---    ---2---    ---9---|
E---0---    -------    -------    -------    ---7---|

    A          A2         Ab         C#         F#
 _______    _______    _______    _______    _______
e-------    -------    -------    -------    -------|
B-------    -------    -------    -------    -------|
G---2---    -------    -------    ---6---    -------|
D---2---    ---7---    ---6---    ---6---    ---4---|
A---0---    ---7---    ---6---    ---4---    ---4---|
E-------    ---5---    ---4---    -------    ---2---|

Intro riff:
e---------------------------------------------------|
B---------------------------------------------------|
G-8/9--8-9--8-9---12-13-11--------------------------|
D---------------------------------------------------|
A---------------------------------------------------|
E---------------------------------------------------|

Intro:
E C# A B

Verse:
E2   Eb-C#   B2-A2   B2

Bridge:
E A E    A E   A E   B E   A E   B E

Bridge part 2:
C#  Ab   A2   F#      E   A   E   B

Outro:
E A E    A E   B E   A E


Song Flow:
Intro x2 (bass and piano only)
Intro x2 (all)
Verse x2
Intro x2
Verse x2*
Bridge
Bridge part 2
Intro x4
Outro


*on second time hold B2 for transition into bridge

________
END
Suggest correction
What's this?
You can suggest a correction to this tab. Community and Mods will review your correction and vote to approve or reject it.
comments
We did not receive enough feedback on this tab! Please rate:
print report bad tab
1 2 3 4 5
1 comment total.
0 reply
SM3LLYCAT 367 wrote on June 28 2016, 02:38 pm

imo sounds better if you play the riff like this

e-0-0--0-0--0-0--0-0-0
B-4/5--4-5--4-5--8/9-7

good clear tab overall though. criminally underrated band.

guest
You may want to rate the tab now too:
select rating
Please do not post tabs as comments. Select "correction" instead!