Oops, an error
Loading. Please wait.

Downtown Lights Tab

440 views 1 this week
no commentswrite comment
1 2 3 4 5
please rate
add to favorites
launch autoscroll
font size
0
reset
how to read this tab
guitar tuner
Autoscroll
slow
fast
+/-
esc
set tempo
stop
Help us to improve Ultimate-Guitar.com Take our survey!
×
Author
Intro
e|--------------------------------------------------------------------------------|
B|--------------------------------------------------------------------------------|
G|--------------------------------------------------------------------------------|
D|--2~--------7~----------------------------2~--------7~--------------------------|
A|--3~-33333--5~555555---88888888-----3~-33333--5~555555---8888888888---3~-33333--|
E|--------------------------------------------------------------------------------|

e|--------------------------------------------------------|
B|--------------------------------------------------------|
G|--------------------------------------------------------|
D|-2~--------7~------------2~--------7~-------------------|
A|-5~555555---8888888888---3~-33333--5~555555---8888888888|
E|--------------------------------------------------------|

e|---------------------------------1-3-------------1~--------------------|
B|---------------------9-----------1-3--55555------1~---------7--5555----|
G|---------------------9-----------2-4--55555-4-2222--444444--7--5555----|
D|--4~-----------------9-----------3-5--55555-5-3333--555555--7--5555----|
A|--5~5555555---777777-7 slideout -3-5--33333-5-3333--555555--5--3333----|
E|---------------------------------1-3--------3-1111--333333-------------|

verse
e|------------------1~---333~----------------------------1~---333~--------------|
B|---555555---------1~---333~-7-555555----555555---------1~---333~-7-555555-----|
G|---555555--4-222222-444444--7-555555----555555--4-444444-444444--7-555555-----|
D|---555555--5-333333-555555--7-555555----555555--5-333333-555555--7-555555-----|
A|---333333--5-333333-555555--5-333333----333333--5-333333-555555--5-333333-----|
E|-----------3-111111-333333----------------------3-111111-333333---------------|

chorus
e|-----1~----------------------1----1-----1----1-----|
B|--55-1~-3-----------------55-1--3-1--55-1-3--1-----|
G|--55-2--3--2--------------55-4--3-4--55-4-3--4-----|
D|--55-3--3--3---55-3-3-----55-3--3-3--55-3-3--3-----|
A|--33-3--1--3---33-3-1-3---33-3--1-3--33-3-1--3-----|
E|-----1-----1------1---1------1----1-----1----1-----|

e|--------------------------------------------------------------------------------|
B|--------------------------------------------------------------------------------|
G|--------------------------------------------------------------------------------|
D|--2~--------7~----------------------------2~--------7~--------------------------|
A|--3~-33333--5~555555---88888888-----3~-33333--5~555555---8888888888---3~-33333--|
E|--------------------------------------------------------------------------------|

e|--------------------------------------------------------|
B|--------------------------------------------------------|
G|--------------------------------------------------------|
D|-2~--------7~------------2~--------7~-------------------|
A|-5~555555---8888888888---3~-33333--5~555555---8888888888|
E|--------------------------------------------------------|

e|---------------------------------1-3-------------1~--------------------|
B|---------------------9-----------1-3--55555------1~---------7--5555----|
G|---------------------9-----------2-4--55555-4-2222--444444--7--5555----|
D|--4~-----------------9-----------3-5--55555-5-3333--555555--7--5555----|
A|--5~5555555---777777-7 slideout -3-5--33333-5-3333--555555--5--3333----|
E|---------------------------------1-3--------3-1111--333333-------------|

verse

chorus

Outro
e|--------------1-1--------------1-1---------------1-1-------------------0~-------|
B|-555555-------1-1--555555------1-1--55555--------1-1---2~--2~----------0~--9----|
G|-555555------------555555-----------55555--------------3~-----3~-----1-1~--9----|
D|-555555--3333------555555-3333------55555--3333--------2~--------2~--2-----9----|
A|-333333--3333------333333-3333------33333--3333--------0~------------2-----7----|
E|---------1111-------------1111-------------1111----------------------0----------|

-------1-3---------|
-------1-3--5~-----|
-------2-4--5~-----|
-------3-5--5~-----|
-------3-5--3~-----|
-------1-3---------|
Suggest correction
What's this?
You can suggest a correction to this tab. Community and Mods will review your correction and vote to approve or reject it.
comments
We did not receive enough feedback on this tab! Please rate:
print report bad tab
1 2 3 4 5
guest
You may want to rate the tab now too:
select rating
Please do not post tabs as comments. Select "correction" instead!