Oops, an error
Loading. Please wait.

One In The Same Tab

117 views 1 this week
no commentswrite comment
1 2 3 4 5
please rate
add to favorites
launch autoscroll
font size
0
reset
how to read this tab
guitar tuner
Tab Pro tools
  • play this tab
  • loop segment
  • change instrument
  • show fretboard
  • metronome
×
Best way to learn
"One In The Same"
Autoscroll
slow
fast
+/-
esc
set tempo
stop
Contributor
Difficulty
novice
-------------------------------------------------------------------------------
                             One in the Same - One Man Army
-------------------------------------------------------------------------------
Tabbed by:  squintyjoefan
E-mail:  squintyjoefan@hotmail.co.uk

Tuning:  EADGBE

Song order

Intro/Verse
Chorus
Verse
Verse 2
Chorus
Bridge
Verse
Verse 2
End on D5


Intro/Verse

e|---------------------------------------------------------------------------|
B|---------------------------------------------------------------------------|
G|--7-------14-------12------14----------------------------------------------|
D|--7-------14-------12------14----------------------------------------------|
A|--5-------12-------10------12----------------------------------------------|
E|---------------------------------------------------------------------------|

    D5      A5       G5      G5

Bass Intro (Come in after 4 bars)

G|---------------------------------------------------------------------------|
D|--0~~~~-----0--12--0--12--0--12--0--12-------------------------------------|
A|---------------------------------------------------------------------------|
E|---------------------------------------------------------------------------|

Bass Verse

G|---------------------------------------------------------------------------|
D|----------7----7-7-7-5-4-----5-5-5-5-7------7-5-4-0------------------------|
A|--5-5-5-7------------------------------------------------------------------|
E|---------------------------------------------------------------------------|


Chorus

e|---------------------------------------------------------------------------|
B|---------------------------------------------------------------------------|
G|--12~---------7------7-----------------------------------------------------|
D|--12~------7--7---7--7-----------------------------------------------------|
A|--10~------7--5---7--5-----------------------------------------------------|
E|-----------5------5--------------------------------------------------------|
  let ring

Bass Chorus

G|---------------------------------------------------------------------------|
D|---------------------------------------------------------------------------|
A|--10--10-------5-5--------5-5----------------------------------------------|
E|-----------5-5--------5-5--------------------------------------------------|


Verse 2
e|---------------------------------------------------------------------------|
B|---------------------------------------------------------------------------|
G|---7-7---12-12---14-14---12-12---------------------------------------------|
D|---7-7---12-12---14-14---12-12---------------------------------------------|
A|---5-5---10-10---12-12---10-10---------------------------------------------|
E|---------------------------------------------------------------------------|


Bass Verse 2

G|---------------------------------------------------------------------------|
D|-------77---55--77---------------------------------------------------------|
A|--55-----------------------------------------------------------------------|
E|---------------------------------------------------------------------------|


Bridge

e|---------------------------------------------------------------------------|
B|---------------------------------------------------------------------------|
G|---7----12----14-----------------------------------------------------------|
D|---7----12----14-----------------------------------------------------------|
A|---5----10----12-----------------------------------------------------------|
E|---------------------------------------------------------------------------|


Bass Bridge
G|---------------------------------------------------------------------------|
D|----------5555---7777---5555-----------------------------------------------|
A|----5555-------------------------------------------------------------------|
E|---------------------------------------------------------------------------|


************************************

| /   slide up
| \   slide down
| h   hammer-on
| p   pull-off
| ~   vibrato
| +   harmonic
| x   Mute note
| b   Bend
| pb  Pre-bend
| br  Bend release
| pbr Pre-bend release
| brb Bend release bend

************************************
comments
We did not receive enough feedback on this tab! Please rate:
print report bad tab
1 2 3 4 5
I want to post or [tab]
guest
You may want to rate the tab now too:
select rating
Please do not post tabs as comments. Select "correction" instead!