Oops, an error
Loading. Please wait.

Rise And Shine Bass Tab

version 1
version 1

Whole song

Interactive

212 views 1 this week
no commentswrite comment
1 2 3 4 5
please rate
add to favorites
launch autoscroll
font size
0
reset
guitar tuner
Autoscroll
slow
fast
+/-
esc
set tempo
stop
Help us to improve Ultimate-Guitar.com Take our survey!
×
Author
Difficulty
Tuning
intermediate
D A D G B E
ONE MINUTE SILENCE - RISE AND SHINE

DROP D TUNING. BASSIST - GLEN DIANI.


G----------5----------------5--0--5h7------|
D------3/5----5/--------3/5----------------|
A--5-------------3--5----------------------|
D------------------------------------------| x2


G--------------------|
D--------------------|
A--5-35-35-35-35-33--|
D--------------------| x7


G-----------------------|
D-----------------------|
A--5-35-35-35-35-35555--|
D-----------------------| x1


G---------------------|
D---------------------|
A------4h5----4h5--3--|
D--00-0---00-0---00---| x8


G----------5----------------5--0--5h7------|
D------3/5----5/--------3/5----------------|
A--5-------------3--5----------------------|
D------------------------------------------| x1


G----------5----------------7-57-57-57-57777---|
D------3/5----5/--------3/5--------------------|
A--5-------------3--5--------------------------| x1


G---------------------|
D---------------------|
A------4h5----4h5--3--|
D--00-0---00-0---00---| x8


G----------5-------3------5--0--5h7----------|
D------3/5-----5/3----3/5--------------------|
A--5-----------------------------------------|
D--------------------------------------------| x1


G----------5-------3------5--/10-------------|
D------3/5-----5/3----3/5-------10/----------|
A--5-----------------------------------------|
D--------------------------------------------| x1


G----------5-------3------5--0--5h7----------|
D------3/5-----5/3----3/5--------------------|
A--5-----------------------------------------|
D--------------------------------------------| x1


G----------5-------3------5--/10-------------|
D------3/5-----5/3----3/5-------10/----------|
A--5-----------------------------------------|
D--------------------------------------------| x1


G---------------------------------------------------|
D---------------------------------------------------|
A----------3-------1-------3-----3h5----------------|
D--0---3/5-----5/3-----3/5----5---------------------| x1


G----------------------------------------|
D----------------------------------------|
A----------3-------1-------3---55555555--|
D--0---3/5-----5/3-----3/5---------------| x1


G------------------------|
D------------------------|
A------4h5----4h5--4h5---|
D--00-0---00-0---00------| x8


G---------------------|
D---------------------|
A------4h5----4h5--3--|
D--00-0---00-0---00---| x8


G----------5----------------5--0--5h7------|
D------3/5----5/--------3/5----------------|
A--5-------------3--5----------------------|
D------------------------------------------| x1


G----------5----------------5--/10---------|
D------3/5----5/--------3/5-------10-------|
A--5-------------3--5----------------------|
D------------------------------------------| x1


G---------------------------------------------------|
D--12b13b12b13b12b13b12b13b12b13b12b13b12b13b12b----| bend this note.
A---------------------------------------------------|
D---------------------------------------------------| x1
Suggest correction
Give kudos to tab author, rate the tab!
1 2 3 4 5
comments
print report bad tab
guest
You may want to rate the tab now too:
select rating
Please do not post tabs as comments. Select "correction" instead!