Oops, an error
Loading. Please wait.

Nintendo bass

1,882 views 1 this week
1 commentread comment
1 2 3 4 5
2 more votes to show rating
add to favorites
×
Save as Personal and add changes to this tab that will be seen only by you. Learn more ›
×
You can save this tab as Personal to edit and correct it or add notes. All changes will be seen only by you. Learn more »
launch autoscroll
font size
0
reset
guitar tuner
edit
Autoscroll
slow
fast
+/-
esc
set tempo
stop
Author
Difficulty
----------------------------------------------------------------------------
			  NINTENDO - One Night Only
----------------------------------------------------------------------------

Tabbed By : Matthew Barron
e-mail: mattybarron@yahoo.co.uk

Tuning: EADG

N.B. I'm not putting in the exact amount of strums, but listening to the song will help 
work it out easily.

G|--------------------------|
D|o------------------------o|
A|o------------------------o| x8
E|---12-12-12-12--9-9-9-9---|

"Come back down..."
G|-----------------|
D|o---------------o|
A|o---------------o| x4
E|---12-12----9~---|


"I've been staring out the window thinking..."
G|------------|
D|o----------o|
A|o----------o| x4
E|---7-7-9~---|

"Come back down..."  (again)
G|-----------------|
D|o---------------o|
A|o---------------o| x4
E|---12-12----9~---|

"I've been staring out the window thinking..."  (again)
G|------------|
D|o----------o|
A|o----------o| x4
E|---7-7-9~---|

"Where..."
G|-------------------|
D|o-----------------o|
A|o-----------------o| x2
E|---7---4--4--5-6---|

G|----------------------|
D|o--------------------o|
A|o--------------------o| x2
E|---7-7-7-7--4-4-4-4---|

G|--------------------------|
D|o------------------------o|
A|o------------------------o| x2
E|---12-12-12-12--9-9-9-9---|

"I've been staring out the window thinking..."
G|------------|
D|o----------o|
A|o----------o| x4
E|---7-7-9~---|

END.

| /  slide up
| \  slide down
| h  hammer-on
| p  pull-off
| ~  vibrato
| +  harmonic
| x  Mute note
============================================================================

            
            
Suggest correction
Creating personal tab
Creating personal tab
You can edit any tab online and save it as your Personal.

You can edit, replace or remove any tab part or add personal notes – all changes will be seen only by you.

Personal tabs can be accessed anytime from any device, even offline.
Learn more »
Give kudos to tab author, rate the tab!
1 2 3 4 5
comments
print report bad tab
1 comment total.
0 reply
VintageBassline 1,739 Oct 31, 2008 04:42 AM

generally good tab, but i think in these parts:
"Come back down..."
G|-----------------|
D|o---------------o|
A|o---------------o| x4
E|---12-12----9~---|

it goes

E|---12-12//---9~--|

so you have the slide all the way up to the 1st fret then play the 9

:)

guest
You may want to rate the tab now too:
select rating
Wanna post a correction for this tab? Suggest correction