Oops, an error
Loading. Please wait.

69 intro tab

version 2
version 2

Intro

Whole song

696 views 9 this week
no commentswrite comment
1 2 3 4 5
3 more votes to show rating
add to favorites
×
Save as Personal and add changes to this tab that will be seen only by you. Learn more ›
×
You can save this tab as Personal to edit and correct it or add notes. All changes will be seen only by you. Learn more »
launch autoscroll
font size
0
reset
how to read this tab
guitar tuner
edit
Autoscroll
slow
fast
+/-
esc
set tempo
stop
Author
Tabbed by:WindSenpai 

Verse/Intro

e|----------------------------        ----------------------------------------------|
B|----------------------------        ----------------------------------------------|
G|-----------------2----------        ----------------------------------------------|
A|------4---4--------4-2----2b        -----4---4------------------------------------|
D|----------------------------[x3]    ------------2--2--0-2-2b-0--------------------| repeat.
E|--22----2---2-2--------2----        --22---2--------------------------------------|

In the intro you can do a very soft palm mute to make it sound closer to the original.


 Chorus

Chords: F#5  D5   E5    B5 

e|---x----x----x-----x-------------------------------------------------|
B|---x----x----x-----x-------------------------------------------------|
G|---x----7----9-----4-------------------------------------------------|
D|---4----7----9-----4-------------------------------------------------|
A|---4----5----7-----2-------------------------------------------------|
E|---2----x----x-----x-------------------------------------------------|

You'll have to figure out the rythm yourself but its fairly stright forward. =D

To make this tab I took reference from this youtube video https://www.youtube.com/watch?v=8BBC1Sagmg8
and my own playing.
 
Good luck learning this great song ;)

********************
| b   Bend
********************

            
            
Suggest correction
Creating personal tab
Creating personal tab
You can edit any tab online and save it as your Personal.

You can edit, replace or remove any tab part or add personal notes – all changes will be seen only by you.

Personal tabs can be accessed anytime from any device, even offline.
Learn more »
Give kudos to tab author, rate the tab!
1 2 3 4 5
comments
print report bad tab
guest
You may want to rate the tab now too:
select rating
Wanna post a correction for this tab? Suggest correction