Oops, an error
Loading. Please wait.

Decision Bass Tab

43 views 6 this week
no commentswrite comment
1 2 3 4 5
3 more votes to show rating
add to favorites
launch autoscroll
font size
0
reset
guitar tuner
Autoscroll
slow
fast
+/-
esc
set tempo
stop
Help us to improve Ultimate-Guitar.com Take our survey!
×
Author
Difficulty
novice
About this tab version
This song is of the actual recording, not live. I found this youtube video that plays almost exactly to mine with a few minor hiccups but its usable for reference https://www.youtube.com/watch?v=CestXL4QFYA. Was this info helpful? Yes No
[Intro]
(0:21)
G|--------------------------------------------------|-------------------------|
D|--------------------------------------------------|-------------------------|
A|-5-5-5-5-5-5-5-5-5-5-5-5-5-5-5-5-5-5-5-5-5-5-5-5--|-------------------------|
E|--------------------------------------------------|---3--3--3-----0--0--0---|
 
[Verse]
G|-----------------------------------|-----------------------------------------|
D|-----------------------------------|-----------------------------------------|
A|-5-5-5-5-5-5-5-5-5-5-5-5-5-5-5-5---|-----------------------------------------|
E|-----------------------------------|---3-3-3-3-3-3-3-3-3-3-3-3-3-3-3-3-------|

G|-----------------------------------|-----------------------------------------|
D|-----------------------------------|-----------------------------------------|
A|-5-5-5-5-5-5-5-5-5-5-5-5-5-5-5-5---|-----------------------------------------|
E|-----------------------------------|---3-3-3-3-3-3-3-3-3-3-3-3-3-3-3-3-------|

G|--------------------------------------|--------------------------------------|
D|--------------------------------------|--------------------------------------|
A|--------------------------------------|--------------------------------------|
E|---7-7-7-7-7-7-7-7--5-5-5-5-5-5-5-5---|---3-3-3-3-3-3-3-3-3-3-3-3-3-3-3-3----|

G|--------------------------------------|--------------------------------------|
D|--------------------------------------|--------------------------------------|
A|--------------------------------------|--------------------------------------|
E|---7-7-7-7-7-7-7-7--5-5-5-5-5-5-5-5---|---3-3-3-3-3-3-3-3-3-3-3-3-3-3-3-3----|

After "as young as we are...."
G|-----------------------------------------------------------------------------|
D|-----------------------------------------------------------------------------|
A|-----------------------------------------------------------------------------|
E|--2-2-2-2-2-2-2-2--3-3-3-3-3-3-3-3-------------------------------------------|

[Chorus]
G|-------------------------------------|---------------------------------------|
D|-------------------------------------|---------------------------------------|
A|-5-5-5-5-5-5-5-5-5-5-5-5-5-5-5-5-----|---------------------------------------|
E|-------------------------------------|--5-5-5-5-5-5-5-5-5-5-5-5-5-5-5-5------|

G|-------------------------------------|---------------------------------------|
D|-------------------------------------|---------------------------------------|
A|-------------------------------------|---------------------------------------|
E|--0-0-0-0---0-0-0-0---0-0------------|--3-3-3-3---3-3-3-3---3-3--------------|

G|-------------------------------------|---------------------------------------|
D|-------------------------------------|---------------------------------------|
A|-5-5-5-5-5-5-5-5-5-5-5-5-5-5-5-5-----|---------------------------------------|
E|-------------------------------------|--5-5-5-5-5-5-5-5-5-5-5-5-5-5-5-5------|

G|-------------------------------------|---------------------------------------|
D|-------------------------------------|---------------------------------------|
A|-------------------------------------|---------------------------------------|
E|--0-0-0-0---0-0-0-0---0-0------------|--3-3-3-3---3-3-3-3---3-3--------------|

G|--------------------------------------------------|--------------------------|
D|--------------------------------------------------|--------------------------|
A|-5-5-5-5-5-5-5-5-5-5-5-5-5-5-5-5-5-5-5-5-5-5-5-5--|--------------------------|
E|--------------------------------------------------|---0--0--0-----3--3--3----|

[Verse]
G|-----------------------------------|-----------------------------------------|
D|-----------------------------------|-----------------------------------------|
A|-5-5-5-5-5-5-5-5-5-5-5-5-5-5-5-5---|-----------------------------------------|
E|-----------------------------------|---3-3-3-3-3-3-3-3-3-3-3-3-3-3-3-3-------|

G|-----------------------------------|-----------------------------------------|
D|-----------------------------------|-----------------------------------------|
A|-5-5-5-5-5-5-5-5-5-5-5-5-5-5-5-5---|-----------------------------------------|
E|-----------------------------------|---3-3-3-3-3-3-3-3-3-3-3-3-3-3-3-3-------|

G|-----------------------------------|-----------------------------------------|
D|-----------------------------------|-----------------------------------------|
A|-----------------------------------|-----------------------------------------|
E|--7-7-7-7-7-7-7--5-5-5-5-5-5-5-5---|--2-2-2-2-2-2-2-2--3-3-3-3-3-3-3-3-------|

[Chorus]
G|-------------------------------------|---------------------------------------|
D|-------------------------------------|---------------------------------------|
A|-5-5-5-5-5-5-5-5-5-5-5-5-5-5-5-5-----|---------------------------------------|
E|-------------------------------------|--5-5-5-5-5-5-5-5-5-5-5-5-5-5-5-5------|

G|-------------------------------------|---------------------------------------|
D|-------------------------------------|---------------------------------------|
A|-------------------------------------|---------------------------------------|
E|--0-0-0-0---0-0-0-0---0-0------------|--3-3-3-3---3-3-3-3---3-3--------------|

G|-------------------------------------|---------------------------------------|
D|-------------------------------------|---------------------------------------|
A|-5-5-5-5-5-5-5-5-5-5-5-5-5-5-5-5-----|---------------------------------------|
E|-------------------------------------|--5-5-5-5-5-5-5-5-5-5-5-5-5-5-5-5------|

G|-------------------------------------|---------------------------------------|
D|-------------------------------------|---------------------------------------|
A|-------------------------------------|---------------------------------------|
E|--0-0-0-0---0-0-0-0---0-0------------|--3-3-3-3---3-3-3-3---3-3--------------|

[Bridge]
G|----------------------|------------------------|-----------------------------|
D|----------------------|------------------------|-----------------------------|
A|-5--------------------|--5---------------------|-------------------------5---|
E|------5-----0-----3---|--------5-----0-----3---|--3-3-3-3---3-3-3-3---3-3----|

[Chorus]
G|-----------------------------|-----------------------------------------------|
D|-----------------------------|-----------------------------------------------|
A|-----------------------------|-----------------------------------------------|
E|-0-0-0-0---0-0-0-0---0-0-----|--3-3-3-3---3-3-3-3---3-3----------------------|

G|-------------------------------------|---------------------------------------|
D|-------------------------------------|---------------------------------------|
A|-5-5-5-5-5-5-5-5-5-5-5-5-5-5-5-5-----|---------------------------------------|
E|-------------------------------------|--5-5-5-5-5-5-5-5-5-5-5-5-5-5-5-5------|

G|-------------------------------------|---------------------------------------|
D|-------------------------------------|---------------------------------------|
A|-------------------------------------|---------------------------------------|
E|--0-0-0-0---0-0-0-0---0-0------------|--3-3-3-3---3-3-3-3---3-3--------------|

G|-------------------------------------|---------------------------------------|
D|-------------------------------------|---------------------------------------|
A|-5-5-5-5-5-5-5-5-5-5-5-5-5-5-5-5-----|---------------------------------------|
E|-------------------------------------|----5-5-5-5-5-5-5-5-5-5-5-5-5-5-5-5----|

G|-------------------------------------|---------------------------------------|
D|-------------------------------------|---------------------------------------|
A|-------------------------------------|---------------------------------------|
E|-0-0-0-0-0-0-0-0-0-0-0-0-0-0-0-0-----|----3-3-3-3-3-3-3-3-3-3-3-3-3-3-3-3----|

[Outro]
G|--------------------------------------------------|-------------------------|
D|--------------------------------------------------|-------------------------|
A|-5-5-5-5-5-5-5-5-5-5-5-5-5-5-5-5-5-5-5-5-5-5-5-5--|-------------------------|
E|--------------------------------------------------|---3--3--3-----0--0--0---|
Suggest correction
Give kudos to tab author, rate the tab!
1 2 3 4 5
comments
print report bad tab
guest
You may want to rate the tab now too:
select rating
Wanna post a correction for this tab? Suggest correction