Oops, an error
Loading. Please wait.

Decision Acoustic tab

version 1
version 1

Whole song

  • Studio Jam Session Acoustic Session.

Interactive

802 views 12 this week
no commentswrite comment
1 2 3 4 5
1 last vote to show rating
add to favorites
×
Save as Personal and add changes to this tab that will be seen only by you. Learn more ›
×
You can save this tab as Personal to edit and correct it or add notes. All changes will be seen only by you. Learn more »
launch autoscroll
font size
0
reset
how to read this tab
guitar tuner
edit
Autoscroll
slow
fast
+/-
esc
set tempo
stop
Author
Difficulty
About this tab version
Studio Jam Session Acoustic Session. Was this info helpful? Yes No
-------------------------------------------------------------------------------
           Decision - Acoustic Studio Jam Session - One OK Rock
-------------------------------------------------------------------------------
Tabbed by:Kennyaki Caguicla
E-mail:iamkennyaki@gmail.com

What's best for you is less for me.
This one is for you, Die hard one ok rock fan Kimberly Darlene E.hehe 

Tuning: Standard
Chords used.  
   D    G       A       Em7     Asus4   Bm7

   
   2    3       0       3       0       2
   3    3       2       3       3       3
   2    0       2       0       2       2
   0    0       2       2       2       4
   x    2       0       2       0       2
   x    3       x       0       x       x


[Intro]
Guitar 1: - Taka plays- D G Em7
Guitar 2: - Toru/ Lead


e|---9h10p9------------------------------------------------------------------|
B|----------10-10-10---------------------------------------------------------|
G|-------------------9-9-9-11-11-11-11/12-11---------------------------------|
D|---------------------------------------------------------------------------|
A|---------------------------------------------------------------------------|
E|---------------------------------------------------------------------------|

e|---9h10p9------------------------------------------------------------------|
B|----------10-10-10-----------------------------------10---------10---------|
G|-------------------9-9-9-11-11-11-11/12-11----9-9/11-----9-9/11------------|
D|---------------------------------------------------------------------------|
A|---------------------------------------------------------------------------|
E|---------------------------------------------------------------------------|

________________________________________________________________________________

[VERSE I]

Guitar 2 - Toru
D
Another day, another life
G
I wanna live it to the fullest
D
A little work, a lotta play 
G
Alright

Bm7        A               G
Ashiato tadori yuki zuku basho
Bm7        A                   G
nazoru dake ga boku no jinsei janai 

Bm7                Asus               G
We'll never be as young as we are now

e|------------------------------3---------------------------------------------|
B|---------3--------2-----------3---------------------------------------------|
G|------------------------------0---------------------------------------------|
D|------4---------2-------------0---------------------------------------------|
A|---2----------0---------------2---------------------------------------------|
E|------------------------------3---------------------------------------------|

__________________________________________________________________________________

[Chorus]
 
Guitar 2: Toru fill in


e|--------10--------10---------10-------10-----------------------------------|
B|------7---------7---------10-------10--------------------------------------|
G|---7----------7--------7---------7-----------------------------------------|2x
D|---------------------------------------------------------------------------|
A|---------------------------------------------------------------------------|
E|---------------------------------------------------------------------------|

Guitar 1: Taka

D                     A
You say it's all right, you say it's OK
Em7
It's up to you? Is that the truth? Tell me
G
I'm feeling used with no one to save me
D                     A 
You say it's all right, does that make it OK? 
Em7                    G
What's best for you is less for me

It's my decision

________________________________________________________________________________

Interlude

Guitar 1: Taka Plays - D G Em7
Guitar 2: Toru/Lead


e|---9h10p9------------------------------------------------------------------|
B|----------10-10-10---------------------------------------------------------|
G|-------------------9-9-9-11-11-11-11/12-11---------------------------------|
D|---------------------------------------------------------------------------|
A|---------------------------------------------------------------------------|
E|---------------------------------------------------------------------------|

e|---9h10p9------------------------------------------------------------------|
B|----------10-10-10-----------------------------------10---------10---------|
G|-------------------9-9-9-11-11-11-11/12-11----9-9/11-----9-9/11------------|
D|---------------------------------------------------------------------------|
A|---------------------------------------------------------------------------|
E|---------------------------------------------------------------------------|

_______________________________________________________________________________

[VERSE II]

Guitar 2: Toku

D                      G
Kieru mae hikaru mae kawaranai
D                         G
Wakaranai mama ja zettai owarenai 
Bm7                Asus               G
We'll never be as young as we are now

e|------------------------------3---------------------------------------------|
B|---------3--------3-----------3---------------------------------------------|
G|------------------------------0---------------------------------------------|
D|------4---------2-------------0---------------------------------------------|
A|---2----------0---------------2---------------------------------------------|
E|------------------------------3---------------------------------------------|


Repeat Chorus
______________________________________________________________________________
Then

Guitar 2: Toru/Solo

e|---------------------------------------------------------------------------|
B|---------------------------------------------------------------------------|
G|------------14-14-14-11-11-11----------------------------------------------|8x
D|---12-12-12-------------------14-14-14-12-12-14-14-------------------------|
A|---------------------------------------------------------------------------|
E|---------------------------------------------------------------------------|


[Bridge]
Guitar 1: Taka Plays D A Em7 G

D                            A
Never Never Never Never Again 
     Em7                                    G
It's my life my life my life my life to live

Nanana....

______________________________________________________________________________

Chorus 

Guitar 1: Taka
D                     Asus
You say it's all right, you say it's OK
Em7
It's up to you? Is that the truth? Tell me
G
I'm feeling used with no one to save me
D                      Asus 
They say it's all right, does that make it OK? 
Em7                   G
What's best for them Not Listening

It's my decision
______________________________________________________________________________

Chorus ending

Guitar 1: Taka
D                     Asus
You say it's all right, you say it's OK
Em7
It's up to you? Is that the truth? Tell me
G
I'm feeling used with no one to save me


Guitar 2: Toru Lead

e|---------------------------------------------------------------------------|
B|---------------------------------------------------------------------------|
G|------14-11------------------14-11------------10/11--12\11-----------------|
D|---12-------14-12-14------12-------14-12-14--------------------------------|
A|-------------------------------------------------------------9-------------|
E|---------------------------------------------------------------------------|

e|---------------------------------------------------------------------------|
B|---------------------------------------------------------------------------|
G|---------------------------------------------------------------------------|
D|---9\7--7\4--4---5\4-------------------------------------------------------|
A|----------------------2----------------------------------------------------|
E|------------------------2-3-2----------------------------------------------|

_________________________________________________________________________________

[Outro]
Guitar 1: Taka D Asus Em7 G 
Guitar 2: Toru Lead


Oooooooooooh..... Oooooooooooooooooh....  Oooooooooh.

e|---9h10p9------------------------------------------------------------------|
B|----------10-10-10---------------------------------------------------------|
G|-------------------9-9-9-11-11-11-11/12-11---------------------------------|
D|---------------------------------------------------------------------------|
A|---------------------------------------------------------------------------|
E|---------------------------------------------------------------------------|

e|---9h10p9------------------------------------------------------------------|
B|----------10-10-10-----------------------------------10---------10---------|
G|-------------------9-9-9-11-11-11-11/12-11----9-9/11-----9-9/11------------|
D|---------------------------------------------------------------------------|
A|---------------------------------------------------------------------------|
E|---------------------------------------------------------------------------|

Pilipinas


************************************

| /   slide 
| \   slide down
| h   hammer-on
| p   pull-off
| ~   vibrato
| +   harmonic
| x   Mute note
| b   Bend
| pb  Pre-bend
| br  Bend release
| pbr Pre-bend release
| brb Bend release bend

PILIPINAS

************************************

            
            
Suggest correction
Creating personal tab
Creating personal tab
You can edit any tab online and save it as your Personal.

You can edit, replace or remove any tab part or add personal notes – all changes will be seen only by you.

Personal tabs can be accessed anytime from any device, even offline.
Learn more »
Give kudos to tab author, rate the tab!
1 2 3 4 5
comments
print report bad tab
guest
You may want to rate the tab now too:
select rating
Wanna post a correction for this tab? Suggest correction