Oops, an error
Loading. Please wait.

Keep It Real Bass Tab

6,654 views 9 this week
1 commentread comment
1 2 3 4 5
excellent!
x 3
add to favorites
launch autoscroll
font size
0
reset
guitar tuner
Autoscroll
slow
fast
+/-
esc
set tempo
stop
Help us to improve Ultimate-Guitar.com Take our survey!
×
Author
-------------------------------------------------------------------------------
			    Keep it real - One ok Rock
-------------------------------------------------------------------------------

Tabbed By :
e-mail:

Tuning:

G|---------------------------------------------------------------------------|
D|---------------------------------------------------------------------------|
A|-7---------------3------------------------------5--------------------------|
E|--------------------------------3------------------------------------------|

G|---------------------------------------------------------------------------|
D|---------------------------------------------------------------------------|
A|-7---------------3---------------------------------------------------------|
E|--------------------------------3---------------7--------------------------|

G|---------------------------------------------------------------------------|
D|---------------------------------------------------------------------------|
A|---------------------------------------------------------------------------|
E|-0-----0-3-5-7-5-3-0-----0-3-5-7-5-3-0-----0-3-5-7-5-3-0----0-3-5-7-5-3-0--|

G|---------------------------------------------------------------------------|
D|---------------------------------------------------------------------------|
A|-----------------5------------------5------------------5--3-----5----------|
E|-0--0-3-0--55-7-----0--0-3-0--55-7-----0--0-3-0--55-7----------------------|

G|---------------------------------------------------------------------------|
D|---------------------------------------------------------------------------|
A|-----------------5------------------5------------------5--3-----5----------|
E|-0--0-3-0--55-7-----0--0-3-0--55-7-----0--0-3-0--55-7----------------------|

G|---------------------------------------------------------------------------|
D|---------------------------------------------------------------------------|
A|-7---------------3------------------------------5--------------------------|
E|--------------------------------3------------------------------------------|

G|---------------------------------------------------------------------------|
D|---------------------------------------------------------------------------|
A|-7---------------3---------------------------------------------------------|
E|--------------------------------3---------------7--------------------------|

G|---------------------------------------------------------------------------|
D|---------------------------------------------------------------------------|
A|-----------------3-3-3-3-3-3-3-3-----------------5-5-5-5-5-5-5-5-----------|
E|-0-0-0-0-0-0-0-0-----------------3-3-3-3-3-3-3-3---------------------------|

G|---------------------------------------------------------------------------|
D|---------------------------------------------------------------------------|
A|-----------------3-3-3-3-3-3-3-3-------------------------------------------|
E|-0-0-0-0-0-0-0-0-----------------3-3-3-3-3-3-3-3-7-7-7-7-7-7-7-7-----------|

G|----------------------------------------------------------------------------|
D|---------------------------------------9------------------------------------|
A|---------7--5--3--/5--5--/9--7h9-5--7---------------------------------------|
E|--/8---8--------------------------------------------------------------------|

G|---------------------------------------------------------------------------|
D|---------------------------------------------------------------------------|
A|-----------------5------------------5------------------5--3-----5----------|
E|-0--0-3-0--55-7-----0--0-3-0--55-7-----0--0-3-0--55-7----------------------|

G|---------------------------------------------------------------------------|
D|---------------------------------------------------------------------------|
A|-----------------5------------------5------------------5--3-----5----------|
E|-0--0-3-0--55-7-----0--0-3-0--55-7-----0--0-3-0--55-7----------------------|

G|---------------------------------------------------------------------------|
D|---------------------------------------------------------------------------|
A|-7---------------3------------------------------5--------------------------|
E|--------------------------------3------------------------------------------|

G|---------------------------------------------------------------------------|
D|---------------------------------------------------------------------------|
A|-7---------------3---------------------------------------------------------|
E|--------------------------------3---------------7--------------------------|

G|---------------------------------------------------------------------------|
D|---------------------------------------------------------------------------|
A|-----------------3-3-3-3-3-3-3-3-----------------5-5-5-5-5-5-5-5-----------|
E|-0-0-0-0-0-0-0-0-----------------3-3-3-3-3-3-3-3---------------------------|

G|---------------------------------------------------------------------------|
D|---------------------------------------------------------------------------|
A|-----------------3-3-3-3-3-3-3-3-------------------------------------------|
E|-0-0-0-0-0-0-0-0-----------------3-3-3-3-3-3-3-3-7-7-7-7-7-7-7-7-----------|


G|---------------------------------------------------------------------------|
D|---------------------------------------------------------------------------|
A|--7-7-7-9-9-9-10-10-10-12-12-12-10-10-10-9-9-9-----------------------------|
E|---------------------------------------------------------------------------|

G|---------------------------------------------------------------------------|
D|-----------------------9-9-9-7-7-7-----------------------------------------|
A|--7-7-7-9-9-9-10-10-10-------------10-10-10--------------------------------|
E|---------------------------------------------------------------------------|


G|-----------------------7h5-5h4-4-------------------------------------------|
D|---------------------------------------------------------------------------|
A|--9-9-9-10-10-10-5-(5)-----------------------------------------------------|
E|---------------------------------------------------------------------------|


G|---------------------------------------------------------------------------|
D|--------------------------12-12-12-10-10-10-12-12-12-14~~------------------|
A|--10-10-10-9-9-9-10-10-10--------------------------------------------------|
E|---------------------------------------------------------------------------|

G|---------------------------------------------------------------------------|
D|---------------------------------------------------------------------------|
A|-7---------------3------------------------------5--------------------------|
E|--------------------------------3------------------------------------------|

G|---------------------------------------------------------------------------|
D|---------------------------------------------------------------------------|
A|-7---------------3---------------------------------------------------------|
E|--------------------------------3---------------7--------------------------|

G|---------------------------------------------------------------------------|
D|---------------------------------------------------------------------------|
A|-----------------3-3-3-3-3-3-3-3-----------------5-5-5-5-5-5-5-5-----------|
E|-0-0-0-0-0-0-0-0-----------------3-3-3-3-3-3-3-3---------------------------|

G|---------------------------------------------------------------------------|
D|---------------------------------------------------------------------------|
A|-----------------3-3-3-3-3-3-3-3-------------------------------------------|
E|-0-0-0-0-0-0-0-0-----------------3-3-3-3-3-3-3-3-7-7-7-7-7-7-7-7-----------|

G|---------------------------------------------------------------------------|
D|---------------------------------------------------------------------------|
A|-----------------3-3-3-3-3-3-3-3-----------------5-5-5-5-5-5-5-5-----------|
E|-0-0-0-0-0-0-0-0-----------------3-3-3-3-3-3-3-3---------------------------|

G|---------------------------------------------------------------------------|
D|---------------------------------------------------------------------------|
A|-----------------3-3-3-3-3-3-3-3-------------------------------------------|
E|-0-0-0-0-0-0-0-0-----------------3-3-3-3-3-3-3-3-7-7-7-7-7-7-7-7-----------|

G|---------------------------------------------------------------------------|
D|---------------------------------------------------------------------------|
A|-----------------3-3-3-3-3-3-3-3-----------------5-5-5-5-5-5-5-5-----------|
E|-0-0-0-0-0-0-0-0-----------------3-3-3-3-3-3-3-3---------------------------|

G|----------------------------------------------------------------------------|
D|----------------------------------------------------------------------------|
A|-----------------3--3-3-3---3-3---------------------------------------------|
E|-0---0-0-0---0-0-----------------3---3-3-3--3-3-7----7--7--7--7-------------|




| /  slide up
| \  slide down
| h  hammer-on
| p  pull-off
| ~  vibrato
| +  harmonic
| x  Mute note
===============================================================================
Suggest correction
Give kudos to tab author, rate the tab!
1 2 3 4 5
comments
print report bad tab
1 comment total.
0 reply
Josecito 30 wrote on August 29 2011, 11:10 pm

A BADJOKE band tab bass =D

guest
You may want to rate the tab now too:
select rating
Wanna post a correction for this tab? Suggest correction