Oops, an error
Loading. Please wait.

Last Dance tab

version 1
version 1

Whole song

Interactive

15,523 views 33 this week
1 commentread comment
1 2 3 4 5
x 3
add to favorites
×
Save as Personal and add changes to this tab that will be seen only by you. Learn more ›
×
You can save this tab as Personal to edit and correct it or add notes. All changes will be seen only by you. Learn more »
launch autoscroll
font size
0
reset
how to read this tab
guitar tuner
edit
Autoscroll
slow
fast
+/-
esc
set tempo
stop
[Intro]

We started out as any other story
Then the words begin to fade away
All your smile used to make me smile
But lately I don't feel that way Try to remember what brought us together
And to forget what's driving us apart
You know we can't wait here forever
Just making time and going no where

(Guitar 1,Clean):

e|----------------------------------------------|
B|----------------------------------------------|
G|----------------------------------------------| (Repeat 12-13-ish times)
D|-----1----1----1----1----1----1----0----0-----|
A|---3----3----3----3----3----3----1----1-------|
D|----------------------------------------------|


(Guitar 2,Clean and with Reverb/Effects):

e|-----------------------------20--15---------------|
B|---15-16----------------------------15------------|
G|-15----------15-17~--------------------17~--------| (Repeat 6-7-ish times)
D|----------17--------------------------------------|
A|--------------------------------------------------|
D|--------------------------------------------------|


(Chords)

Is this our last dance
Can we take another chance
To be alone together still
Are we wasting time chasing dreams
Not yours or mine
Care for you
I always will

Chords 1:
e|------------------------------------------|
B|------------------------------------------|
G|---------------3---3-x-x-8---8-x-x-5---5--|
D|----3----3-x-x-3---3-x-x-8---8-x-x-5---5--|
A|----3----3-x-x-1---1-x-x-6---6-x-x-3---3--|
D|----3----3-x-x----------------------------|

Chords 1: With the "middle" part. It kind of sound like solo, but not.(right after the first chords)

e|------------------------------------------------------------|
B|------------------------------------------------------------|
G|--------------3---3-x-x-8---8-x-x-/5-5-/-3-3-\-8-8-/-5-5----|
D|----3---3-x-x-3---3-x-x-8---8-x-x-/x-x-/-x-x-\-x-x-/-x-x----|
A|----3---3-x-x-1---1-x-x-6---6-x-x-/3-3-/-1-1-\-6-6-/-3-3----|
D|----3---3-x-x-----------------------------------------------|

Chords 1 Again not he middle part but add:
e|-----------------------------------------
B|-----------------------------------------|
G|------------------------3-3-3-3-3-3-3-3--|
D|----3-3-3-3-3-3-3-3-x-x-3-3-3-3-3-3-3-3--|
A|----3-3-3-3-3-3-3-3-x-x-1-1-1-1-1-1-1-1--|
D|----3-3-3-3-3-3-3-3-x-x------------------|


Lyrics(Intro):

We can try to keep the love from fading
Cuz' all we have a reasons to be called....?
Remember when you used to make me smile
But lately I don't feel the same
Look up and I see your face
I can see you looking back at me
Every time I think it's getting better
Just making time and going no where

Intro

(Guitar 1,Clean):

e|----------------------------------------------|
B|----------------------------------------------|
G|----------------------------------------------| (Repeat 12-13-ish times)
D|-----1----1----1----1----1----1----0----0-----|
A|---3----3----3----3----3----3----1----1-------|
D|----------------------------------------------|


Intro(Guitar 2,Clean and with Reverb/Effects):

e|-----------------------------20--15---------------|
B|---15-16----------------------------15------------|
G|-15----------15-17~--------------------17~--------| (Repeat 6-7-ish times)
D|----------17--------------------------------------|
A|--------------------------------------------------|
D|--------------------------------------------------|


(Chords)
Is this our last dance
Can we take another chance
To be alone together still
Are we wasting time chasing dreams
Not yours or mine
Care for you
I always will

Lyrics(2 Intro):

You know I always will
But there's no looking back


And no more need to cry
No more need to cry
No more need to cry


[Intro 2]

(Guitar 1,Clean):

e|------------------|
B|------9-10--------|
G|---12-------------| (Repeat 11 times) Time: 2:43 On official One Ok Rock Last dance video.
D|------------------|
A|------------------|
D|------------------|

Chords with intro 2:
e|--------------------------------------|
B|--------------------------------------|
G|---6------6------6--------------------| Repeat 2x, 2:43 On official One Ok Rock Last dance video
D|---6------6------6---6~----5--3--1----|
A|---4------4------4---6~----5--3--1----|
D|---------------------6~----5--3--1----|

After the x2:
e|----------------------------------------------------------------------------|
B|----------------------------------------------------------------------------|
G|---6------6------6---------------6~---6~----6-6-6-6-6-6-6-6-6-6-6-6-6-6-6-6-|
D|---6------6------6---6~----5~----6~---6~----6-6-6-6-6-6-6-6-6-6-6-6-6-6-6-6-|
A|---4------4------4---6~----5~----4~---4~----4-4-4-4-4-4-4-4-4-4-4-4-4-4-4-4-|
D|---------------------6~----5~-----------------------------------------------|
                                             PM-------------PM 
(Chords)
Is this all we have
Should we walk away at last

To be alone together still
Are we wasting time chasing dreams
Not yours or mine
Care for you

e|----------------------------------------------------------------------------|
B|----------------------------------------------------------------------------|
G|--------------3---3-x-x-8---8-x-x-5---5-x-x-8---8-/5-5-/-3-3-\-8-8-/-5-5----|
D|----3---3-x-x-3---3-x-x-8---8-x-x-5---5-x-x-6---6-/x-x-/-x-x-\-x-x-/-x-x----|
A|----3---3-x-x-1---1-x-x-6---6-x-x-3---3-x-x-6---8-/3-3-/-1-1-\-6-6-/-3-3----|
D|----3---3-x-x---------------------------------------------------------------|

e|------------------------------------------|
B|------------------------------------------|
G|---------------3---3-x-x-8~---------------|
D|----3----3-x-x-3---3-x-x-8~---------------|
A|----3----3-x-x-1---1-x-x-6~---------------|
D|----3----3-x-x----------------------------|

Lyrics(Intro 2):

I always will

You know I always will


[Intro 2]

(Guitar 1 Clean):

e|------------------|
B|------9-10--------|
G|---12-------------| (Repeat 6 times)
D|------------------|
A|------------------|
D|------------------|



************************************

| x  Dead note
| /  Slide up
| \  Slide down
| ~  Vibrato
| PM  Palm mute

************************************

            
            
Suggest correction
Creating personal tab
Creating personal tab
You can edit any tab online and save it as your Personal.

You can edit, replace or remove any tab part or add personal notes – all changes will be seen only by you.

Personal tabs can be accessed anytime from any device, even offline.
Learn more »
Give kudos to tab author, rate the tab!
1 2 3 4 5
comments
print report bad tab
1 comment total.
0 reply
al_bura_ay 31 4 days ago

wow very amazing, keep it up

guest
You may want to rate the tab now too:
select rating
Wanna post a correction for this tab? Suggest correction