Oops, an error
Loading. Please wait.

Mighty Long Fall bass

2,347 views 15 this week
no commentswrite comment
1 2 3 4 5
x 4
add to favorites
×
Save as Personal and add changes to this tab that will be seen only by you. Learn more ›
×
You can save this tab as Personal to edit and correct it or add notes. All changes will be seen only by you. Learn more »
launch autoscroll
font size
0
reset
guitar tuner
edit
Autoscroll
slow
fast
+/-
esc
set tempo
stop
Author
Difficulty
Strings: 5
Turning: B E A D G (Standard)


[Intro]

0:06
G|-------------------------------------------------------------------------------------|
D|----8---8-----8---8----11---11-----11---11-------------------------------------------|
A|--6---6---6-6---6----9----9----9-9----9-------11---11-----11---11----9---9---8---8---|
E|--------------------------------------------9----9----9-9----9-----7---7---6---6-----|
B|-------------------------------------------------------------------------------------|


[Verse 1]

G|-------------------------------------------------------------------------------------|
D|----8---8-----8---8----11---11-----11---11-------------------------------------------|
A|--6---6---6-6---6----9----9----9-9----9-------11---11-----11---11----9---9---8---8---|
E|--------------------------------------------9----9----9-9----9-----7---7---6---6-----|
B|-------------------------------------------------------------------------------------|

G|-------------------------------------------------------------------------------------|
D|----8---8-----8---8----11---11-----11---11-------------------------------------------|
A|--6---6---6-6---6----9----9----9-9----9-------11---11-----11---11----9---9---8---8---|
E|--------------------------------------------9----9----9-9----9-----7---7---6---6-----|
B|-------------------------------------------------------------------------------------|

G|-----------------------------------------------------------------------------------------------------|
D|----8---8-----8---8----11---11-----11---11-----------------------------------------------------------|
A|--6---6---6-6---6----9----9----9-9----9-------11---11-----11---11------------------------------------|
E|--------------------------------------------9----9----9-9----9-----7-7-7-7-7-7-7-7-6-6-6-6-6-6-6-6---|
B|-----------------------------------------------------------------------------------------------------|


[Chorus]

0:54
G|-----------------------------------------------------------------------|
D|-----------------------------------------------------------------------|
A|-----------------------------------------------------------------------|
E|-------------------7-7-7-7-7-7-7-7--2-2-2-2-2-2-2-2--6-6-6-6-6-6-6-6---|
B|--4-4-4-4-4-4-4-4------------------------------------------------------|

G|-----------------------------------------------------------------------|
D|-----------------------------------------------------------------------|
A|-----------------------------------------------------------------------|
E|-------------------7-7-7-7-7-7-7-7--2-2-2-2-2-2-2-2--9-9-9-9-9-9-9-9---|
B|--4-4-4-4-4-4-4-4------------------------------------------------------|

G|-----------------------------------------------------------------------|
D|-----------------------------------------------------------------------|
A|-----------------------------------------------------------------------|
E|-------------------7-7-7-7-7-7-7-7--2-2-2-2-2-2-2-2--6-6-6-6-6-6-6-6---|
B|--4-4-4-4-4-4-4-4------------------------------------------------------|

G|-----------------------------------------------------------------------|
D|-----------------------------------------------------------------------|
A|-----------------------------------------------------------------------|
E|-------------------7-7-7-7-7-7-7-7--2-2-2-2-2-2-2-2--9-9-9-9-9-9-9-9---|
B|--4-4-4-4-4-4-4-4------------------------------------------------------|


[Verse 2]

[Break]

1:22
G|-------------------------------------------------------------------------------------|
D|----8---8-----8---8----11---11-----11---11-------------------------------------------|
A|--6---6---6-6---6----9----9----9-9----9-------11---11-----11---11----9---9---8---8---|
E|--------------------------------------------9----9----9-9----9-----7---7---6---6-----|
B|-------------------------------------------------------------------------------------|

G|---------------------------------------------------------------------------------------------|
D|----8---8-----8---8----11---11-----11---11---------------------------------------------------|
A|--6---6---6-6---6----9----9----9-9----9-------11---11-----11---11----9---9-------------------|
E|--------------------------------------------9----9----9-9----9-----7---7---6-6-6-6-6-6-6-6---|
B|---------------------------------------------------------------------------------------------|


[Chorus]

1:46
G|-----------------------------------------------------------------------|
D|-----------------------------------------------------------------------|
A|-----------------------------------------------------------------------|
E|-------------------7-7-7-7-7-7-7-7--2-2-2-2-2-2-2-2--6-6-6-6-6-6-6-6---|
B|--4-4-4-4-4-4-4-4------------------------------------------------------|

G|-----------------------------------------------------------------------|
D|-----------------------------------------------------------------------|
A|-----------------------------------------------------------------------|
E|-------------------7-7-7-7-7-7-7-7--2-2-2-2-2-2-2-2--9-9-9-9-9-9-9-9---|
B|--4-4-4-4-4-4-4-4------------------------------------------------------|

G|-----------------------------------------------------------------------|
D|-----------------------------------------------------------------------|
A|-----------------------------------------------------------------------|
E|-------------------7-7-7-7-7-7-7-7--2-2-2-2-2-2-2-2--6-6-6-6-6-6-6-6---|
B|--4-4-4-4-4-4-4-4------------------------------------------------------|

G|-----------------------------------------------------------------------|
D|-----------------------------------------------------------------------|
A|-----------------------------------------------------------------------|
E|-------------------7-7-7-7-7-7-7-7--2-2-2-2-2-2-2-2--9-9-9-9-9-9-9-9---|
B|--4-4-4-4-4-4-4-4------------------------------------------------------|



[Bridge]

[Breakdown]

2:22
G|----------------------------------------------------|
D|----------------------------------------------------|
A|---------------------------4------------------------|
E|------------------------------7-7-7-7-6-6-6-4-------|
B|--4--4--4-4--4~-4-4--4-6-7--------------------7-6---|

G|----------------------------------------------------|
D|----------------------------------------------------|
A|---------------------------4------------------------|
E|------------------------------7-7-7-7-6-6-6-4-------|
B|--4--4--4-4--4~-4-4--4-6-7--------------------7-6---| 

G|----------------------------------------------------|
D|----------------------------------------------------|
A|---------------------------4------------------------|
E|------------------------------7-7-7-7-6-6-6-4-------|
B|--4--4--4-4--4~-4-4--4-6-7--------------------7-6---| 

G|----------------------------------------------------|
D|----------------------------------------------------|
A|---------------------------4------------------------|
E|------------------------------7-7-7-7-6-6-6-4-------|
B|--4--4--4-4--4~-4-4--4-6-7--------------------7-6---| 

G|----------------------------------------------------|
D|----------------------------------------------------|
A|---------------------------4------------------------|
E|------------------------------7-7-7-7-6-6-6-4-------|
B|--4--4--4-4--4~-4-4--4-6-7--------------------7-6---|  

G|------------------------------------------------|
D|------------------------------------------------|
A|---------------------------4--------------------|
E|------------------------------7-7-7-7-6-6-6-6---|
B|--4--4--4-4--4~-4-4--4-6-7----------------------|


[Chorus]

2:59
G|-----------------------------------------------------------------------|
D|-----------------------------------------------------------------------|
A|-----------------------------------------------------------------------|
E|-------------------7-7-7-7-7-7-7-7--2-2-2-2-2-2-2-2--6-6-6-6-6-6-6-6---|
B|--4-4-4-4-4-4-4-4------------------------------------------------------|

G|-----------------------------------------------------------------------|
D|-----------------------------------------------------------------------|
A|-----------------------------------------------------------------------|
E|-------------------7-7-7-7-7-7-7-7--2-2-2-2-2-2-2-2--9-9-9-9-9-9-9-9---|
B|--4-4-4-4-4-4-4-4------------------------------------------------------|

G|-----------------------------------------------------------------------|
D|-----------------------------------------------------------------------|
A|-----------------------------------------------------------------------|
E|-------------------7-7-7-7-7-7-7-7--2-2-2-2-2-2-2-2--6-6-6-6-6-6-6-6---|
B|--4-4-4-4-4-4-4-4------------------------------------------------------|

G|-----------------------------------------------------------------------|
D|-----------------------------------------------------------------------|
A|-----------------------------------------------------------------------|
E|-------------------7-7-7-7-7-7-7-7--2-2-2-2-2-2-2-2--9-9-9-9-9-9-9-9---|
B|--4-4-4-4-4-4-4-4------------------------------------------------------|

G|-----------------------------------------------------------------------|
D|-----------------------------------------------------------------------|
A|-----------------------------------------------------------------------|
E|-------------------7-7-7-7-7-7-7-7--2-2-2-2-2-2-2-2--6-6-6-6-6-6-6-6---|
B|--4-4-4-4-4-4-4-4------------------------------------------------------|

G|-----------------------------------------------------------------------|
D|-----------------------------------------------------------------------|
A|-----------------------------------------------------------------------|
E|-------------------7-7-7-7-7-7-7-7--2-2-2-2-2-2-2-2--9-9-9-9-9-9-9-9---|
B|--4-4-4-4-4-4-4-4------------------------------------------------------|


[Outro]

3:36
G|----------------------------------------------------|
D|----------------------------------------------------|
A|---------------------------4------------------------|
E|------------------------------7-7-7-7-6-6-6-4-------|
B|--4--4--4-4--4~-4-4--4-6-7--------------------7-6---| 


G|-------------------------------------------------------|
D|-------------------------------------------------------|
A|---------------------------4---------------------------| 
E|------------------------------7-7-7-7-6-6-6-4----------|
B|--4--4--4-4--4~-4-4--4-6-7--------------------7-6-4~---| 


▬▬▬▬▬▬▬▬▬▬ஜ۩۞۩ஜ▬▬▬▬▬▬▬▬▬▬▬▬▬▬ 
Band:   ONE OK ROCK

Song:   Mighty Long Fall

Album:  35xxxv

Year:   2015
▬▬▬▬▬▬▬▬▬▬ஜ۩۞۩ஜ▬▬▬▬▬▬▬▬▬▬▬▬▬▬ 


            
            
Suggest correction
Creating personal tab
Creating personal tab
You can edit any tab online and save it as your Personal.

You can edit, replace or remove any tab part or add personal notes – all changes will be seen only by you.

Personal tabs can be accessed anytime from any device, even offline.
Learn more »
comments
print report bad tab
guest
You may want to rate the tab now too:
select rating
Wanna post a correction for this tab? Suggest correction