Oops, an error
Loading. Please wait.

Taking Off Bass Tab

2,032 views 354 this week
no commentswrite comment
1 2 3 4 5
x 3
add to favorites
launch autoscroll
font size
0
reset
guitar tuner
Autoscroll
slow
fast
+/-
esc
set tempo
stop
Help us to improve Ultimate-Guitar.com Take our survey!
×
Author
Difficulty
novice
About this tab version
Tab for 5 strings bass guitar. Was this info helpful? Yes No
Strings: 5
Turning: B E A D G (Standard)


[Intro]

0:09
G|---------------------------------------------------------------|
D|---------------------------------------------------------------|
A|---------------------------------------------------------------|
E|--4--4--5--5-5-5-5-5-5-5-5-5-5-5-5--7--7-----------------------|
B|------------------------------------------2--2-2-2-2-2-2-2-2---|

G|----------------------------------------------------------------------------------|
D|----------------------------------------------------------------------------------|
A|----------------------------------------------------------------------------------|
E|--4~--4--4--5--5-5-5-5-5-5-5-5-5-5-5-5--7--7---------------------------4--4--5~---|
B|----------------------------------------------2--2-2-2-2-2-2-2-2--4-4-------------|


[Verse 1]

0:35
G|----------------------------------------------------------------------------|
D|----------------------------------------------------------------------------|
A|----------------------------------------------------------------------------|
E|----------------------------------------------------------------------------|
B|--/12~\7~\-2-2--2-2--2-2--2-2--2--2-2--2-2--2-2--2-2--2--2-2--2-2--2-2--2---|

[Pre-Chorus]

G|------------------------------|
D|------------------------------|
A|------------------------------|
E|------------5--7-------/14~---|
B|--/12~\7~\---------2~---------|


[Chorus 1]

0:54
G|---------------------------------------------------------------|
D|---------------------------------------------------------------|
A|---------------------------------------------------------------|
E|--4--4--5--5-5-5-5-5-5-5-5-5-5-5-5--7--7-----------------------|
B|------------------------------------------2--2-2-2-2-2-2-2-2---|

G|----------------------------------------------------------------------------------------|
D|----------------------------------------------------------------------------------------|
A|----------------------------------------------------------------------------------------|
E|--4~--4--4--5--5-5-5-5-5-5-5-5-5-5-5-5--7--7----------------------4~--4--4--5~---7--7---|
B|----------------------------------------------2--2-2-2-2-2-2-2-2------------------------|


[Verse 2]

1:17
G|-----------------------------------------------------------------------------------------------|
D|-----------------------------------------------------------------------------------------------|
A|-----------------------------------------------------------------------------------------------|
E|-----------------------------------------------------------------------------------------------|
B|--2-2--2-2--2-2--2-2--2--2-2--2-2--2-2--2-2--2--2-2--2-2--2-2--2-2--2--2-2--2-2--2-2--2-2--2---|

G|---------------------------------------------------------------------------------------------------|
D|---------------------------------------------------------------------------------------------------|
A|---------------------------------------------------------------------------------------------------|
E|---------------------------------------------------------------------------------------------------|
B|--2-2--2-2--2-2--2-2--2--2-2--2-2--2-2--2-2--2--2-2--2-2--2-2--2-2--2--2-2--2-2--2-2--2-2--2/12\---|

[Pre-Chorus]

G|---------------------|
D|---------------------|
A|---------------------|
E|--5--7--------/14~---|
B|---------2~----------|


[Chorus 2]

1:42
G|-------------------------------------------------------------|
D|-------------------------------------------------------------|
A|-------------------------------------------------------------|
E|--5--5-5-5-5-5-5-5-5-5-5-5-5--7--7----------------------4~---|
B|------------------------------------2--2-2-2-2-2-2-2-2-------|

G|-------------------------------------------------------------------|
D|-------------------------------------------------------------------|
A|-------------------------------------------------------------------| [Stop at 1:58]
E|--4--4--5--5-5-5-5-5-5-5-5-5-5-5-5--7--7----------------------4~---|
B|------------------------------------------2--2-2-2-2-2-2-2-2-------|


[Breakdown]

1:59
G|----------------------------------------------------------------|
D|----------------------------------------------------------------|
A|----------------------------------------------------------------| [Stop]
E|--5--5-5-5-5-5-5-5-5-5-5-5-5--7-7-7-7----------------------4~---|
B|---------------------------------------2--2-2-2-2-2-2-2-2-------|

2:07
G|---------------------------------------------------------------------------------|
D|---------------------------------------------------------------------------------|
A|---------------------------------------------------------------------------------| [Stop]
E|--5--5-5-5-5-5-5-5-5-5-5-5-5/16-16-16-16-14\---------------------------4--4--5---|
B|---------------------------------------------2--2-2-2-2-2-2-2-2--4--4------------|


[Bridge]

2:25
G|-----------------------|
D|-----------------------|
A|-----------------------|
E|--5~--7~--------/14~---|
B|-----------2~----------|

2:33
G|----------------------------------------------|
D|----------------------------------------------|
A|----------------------------------------------| [Stop]
E|--5~----7~-------4~--4~---5~----7~-------4~---|
B|------------2~----------------------2~--------|


[Chorus 3]

2:50
G|-------------------------------------------------------------|
D|-------------------------------------------------------------|
A|-------------------------------------------------------------|
E|--5--5-5-5-5-5-5-5-5-5-5-5-5--7--7----------------------4~---|
B|------------------------------------2--2-2-2-2-2-2-2-2-------|

G|-------------------------------------------------------------------|
D|-------------------------------------------------------------------|
A|-------------------------------------------------------------------| [Stop at 3:06]
E|--4--4--5--5-5-5-5-5-5-5-5-5-5-5-5--7--7----------------------4~---|
B|------------------------------------------2--2-2-2-2-2-2-2-2-------|


[Outro]

3:07
G|----------------------------------------------------------------|
D|----------------------------------------------------------------|
A|----------------------------------------------------------------| [Stop]
E|--5--5-5-5-5-5-5-5-5-5-5-5-5--7-7-7-7----------------------4~---|
B|---------------------------------------2--2-2-2-2-2-2-2-2-------|

3:16
G|----------------------------------------------------------------------------------|
D|----------------------------------------------------------------------------------|
A|----------------------------------------------------------------------------------| [End]
E|--5--5-5-5-5-5-5-5-5-5-5-5-5/16-16-16-16-14\---------------------------4--4--5~---|
B|---------------------------------------------2--2-2-2-2-2-2-2-2--4--4-------------|



************************************

| /   Slide up
| \   Slide down
| ~   Vibrato

************************************



▬▬▬▬▬▬▬▬▬▬ஜ۩۞۩ஜ▬▬▬▬▬▬▬▬▬▬▬▬▬▬ 
Band:   ONE OK ROCK

Song:   Taking Off

Album:  Taking Off - Single

Year:   2016
▬▬▬▬▬▬▬▬▬▬ஜ۩۞۩ஜ▬▬▬▬▬▬▬▬▬▬▬▬▬▬ 

Suggest correction
Give kudos to tab author, rate the tab!
1 2 3 4 5
comments
print report bad tab
guest
You may want to rate the tab now too:
select rating
Wanna post a correction for this tab? Suggest correction