Oops, an error
Loading. Please wait.

Binks Sake Tab

version 1
version 1

Whole song

Interactive

26,371 views 102 this week
1 commentread comment
1 2 3 4 5
x 6
add to favorites
launch autoscroll
font size
0
reset
how to read this tab
guitar tuner
Autoscroll
slow
fast
+/-
esc
set tempo
stop
Help us to improve Ultimate-Guitar.com Take our survey!
×
Author
Difficulty
novice
e|----------------9---------7|----------------9-------------|
B|---9--12-12-12-----12--9---|---9--12-12-12-----12--9--5---|
G|---------------------------|------------------------------|
D|---------------------------|------------------------------|
A|---------------------------|------------------------------|
E|---0-----------------------|---0--------------------------|
  
e|---7-----------------------|---7--------------------------|
B|------9--7--5-----5--7-----|------9--7--5-----5-----------|
G|---------------6-----------|---------------6-----4--------|
D|---------------------------|------------------------------|
A|---0-----------------------|---0--------------------------|
E|---------------------------|------------------------------|
    
e|--------------------5--4----------------|
B|------5----------5--------5--7--9--5----|
G|---6-----4----6-------------------------|
D|----------------------------------------|
A|----------------------------------------|
E|----------------------------------------|
Suggest correction
comments
print report bad tab
1 comment total.
0 reply
leoniekratz 10 Apr 27, 2016 05:22 AM, edited at 05:27 am

The last one... I think this may sound better.

|-----------------------5--4--4--2--0--2--||------5-------------5--------------------||---6-----4----6--8-----------------------||-----------------------------------------||-----------------------------------------||-----------------------------------------|

guest
You may want to rate the tab now too:
select rating
Wanna post a correction for this tab? Suggest correction