Oops, an error
Loading. Please wait.

God You Are My God tab

version 2
version 2

Whole song

140 views 1 this week
no commentswrite comment
1 2 3 4 5
3 more votes to show rating
add to favorites
×
Save as Personal and add changes to this tab that will be seen only by you. Learn more ›
×
You can save this tab as Personal to edit and correct it or add notes. All changes will be seen only by you. Learn more »
launch autoscroll
font size
0
reset
how to read this tab
guitar tuner
edit
Autoscroll
slow
fast
+/-
esc
set tempo
stop
This is only guitar 1. There are two guitar parts, but I've only figured out the first one so far. 

Chords used in Bridge are these
    E A D G B e
D   x x 0 2 3 2
Em  0 2 2 0 3 3
C   0 3 2 0 3 3

CAPO 5

Tuning: Standard


[Verses]

e|---------------------------------------------------------------------------|
B|------3---------3--------3-------3--------3-------3---------3--------3-----|
G|----0---0-----0---0----0---0---0---0----0---0---0---0-----0---0----0---0---|
D|---------------------------------------------------------------------------|
A|--2--------2---------3-------3---------------------------------------------|
E|--------------------------------------3-------3--------2---------2---------|

No praise can define You
No thought could contain You
God No other one is Holy
No other one is robed in righteousness


[Chorus 1]

e|---------------------------------------------------------------------------|
B|------3-------3-------3-------3--------3-------3-------3-------3-----------|
G|----0---0---0---0---0---0---0---0----2---2---2---2---2---2---2---2---------|
D|-----------------------------------0-------0-------0-------0---------------|
A|---------------------------------------------------------------------------|
E|--3-------3-------3-------3------------------------------------------------|

e|---------------------------------------------------------------------------|
B|------3-------3-------3-------3-------3-------3-------3-------3------------|
G|----0---0---0---0---0---0---0---0---0---0---0---0---0---0---0---0----------|
D|--2-------2-------2-------2------------------------------------------------|
A|----------------------------------3-------3-------3-------3----------------|
E|---------------------------------------------------------------------------|

God You are my God
Glorious, glorious


[Verse 2] Same as verse 1

No light can outshine You
No power can defeat You God
No other one is Holy
No other one is high and
lifted up


[Chorus 2] Same as chorus 1

God You are my God
Glorious, glorious
God You are my God
Victorious, victorious

[Bridge]
D                Em
From the dawn of time you reign
C
To the end of days
You're the God who saves, sing
D                  Em
All the earth will shout Your praise
C
You will never change
You're the God who saves, sing
(repeat)

            
            
Suggest correction
Creating personal tab
Creating personal tab
You can edit any tab online and save it as your Personal.

You can edit, replace or remove any tab part or add personal notes – all changes will be seen only by you.

Personal tabs can be accessed anytime from any device, even offline.
Learn more »
Give kudos to tab author, rate the tab!
1 2 3 4 5
comments
print report bad tab
guest
You may want to rate the tab now too:
select rating
Wanna post a correction for this tab? Suggest correction