Oops, an error
Loading. Please wait.

One Way System Bass Tab

249 views 1 this week
no commentswrite comment
1 2 3 4 5
3 more votes to show rating
add to favorites
launch autoscroll
font size
0
reset
guitar tuner
Autoscroll
slow
fast
+/-
esc
set tempo
stop
Help us to improve Ultimate-Guitar.com Take our survey!
×
Intro
G--------------------|--------------------|--------------------|
D--------------------|--------------------|--------------------|
A--------------------|--------------------|-7-------------10---|
E--------------------|--------------------|--------------------|

G--------------------|--------------------|--------------------|
D--------------------|--------------------|--------------------|
A-7-------------10---|-7-------------10---|-7-------------10---|
E--------------------|--------------------|--------------------|

Verse             x10
G--------------------|
D--------------------|
A-7-7-7-7-7-7--10-10-|
E--------------------|

Chorus
G-------------------------------------------------------------|
D-------------------------------------------------------------|
A-8-8-8-8-7-7-7-7---------5-5-5---3-3-3-3---------------------|
E-----------------5-5-5-5-----------------3-3-3-3-5-5---7-7-7-|

Verse 2           x10
G--------------------|
D--------------------|
A-7-7-7-7-7-7--10-10-|
E--------------------|

Chorus
G-------------------------------------------------------------|
D-------------------------------------------------------------|
A-8-8-8-8-7-7-7-7---------5-5-5---3-3-3-3---------------------|
E-----------------5-5-5-5-----------------3-3-3-3-5-5---7-7-7-|

Bridge/Solo                        x4
G------------------------------------|
D------------------------------------|
A-6/7-7-7-7-6/7-7-7-7-6/7-7-7-7-10---|
E------------------------------------|

Chorus
G-------------------------------------------------------------|
D-------------------------------------------------------------|
A-8-8-8-8-7-7-7-7---------5-5-5---3-3-3-3---------------------|
E-----------------5-5-5-5-----------------3-3-3-3-5-5---7-7-7-|

Outro
G--------------------|--------------------|--------------------|
D--------------------|--------------------|--------------------|
A-7-------------10---|-7-------------10---|-7-------------10---|
E--------------------|--------------------|--------------------|

G--------------------|--------------------|
D--------------------|--------------------|
A-7-------------10---|-7------------------|
E--------------------|--------------------|
Suggest correction
Give kudos to tab author, rate the tab!
1 2 3 4 5
comments
print report bad tab
guest
You may want to rate the tab now too:
select rating
Wanna post a correction for this tab? Suggest correction