Oops, an error
Loading. Please wait.

A I Bass Tab

52 views 3 this week
no commentswrite comment
1 2 3 4 5
3 more votes to show rating
add to favorites
launch autoscroll
font size
0
reset
guitar tuner
Autoscroll
slow
fast
+/-
esc
set tempo
stop
Help us to improve Ultimate-Guitar.com Take our survey!
×
Author
OneRepublic - A.I. (feat. Peter Gabriel)

[Intro]

G|--------------|--------------|-------------|--------------|
D|--------------|--------------|---2---2--0--|--2---4---5--7|
A|-------3--3--5|-------2--2--5|-------------|--------------|
E|--------------|--------------|-------------|0---2---3--5--|

G|--------------|--------------|-------------|--------------|
D|--------------|--------------|---2---2--0--|--2---4---5--7|
A|-------3--3--5|-------2--2--5|-------------|--------------|
E|--------------|--------------|-------------|0---2---3--5--|


[Verse]

G|--------------|--------------|-------------|--------------|
D|--------------|--------------|---2---2--0--|--2---4---5--7|
A|-------3--3--5|-------2--2--5|-------------|--------------|
E|--------------|--------------|-------------|0---2---3--5--|

G|--------------|--------------|-------------|--------------|
D|--------------|--------------|---2---2--0--|--2---4---5--7|
A|-------3--3--5|-------2--2--5|-------------|--------------|
E|--------------|--------------|-------------|0---2---3--5--|

G|--------------|--------------|-------------|--------------|
D|--------------|--------------|---2---2--0--|--2---4---5--7|
A|-------3--3--5|-------2--2--5|-------------|--------------|
E|--------------|--------------|-------------|0---2---3--5--|

G|--------------|--------------|-------------|--------------|
D|--------------|--------------|---2---2--0--|--2---4---5--7|
A|-------3--3--5|-------2--2--5|-------------|--------------|
E|--------------|--------------|-------------|0---2---3--5--|

[Chorus]

G|--------------|--------------|-------------|--------------|
D|--------------|--------------|2------------|--2---4---5--7|
A|3-------------|2-------------|-------------|--------------|
E|--------------|--------------|-------------|0---2---3--5--|

G|--------------|--------------|-------------|--------------|
D|--------------|--------------|2------------|2-------------|
A|3-------------|2-------------|-------------|--------------|
E|--------------|--------------|-------------|--------------|

G|--------------|--------------|-------------|--------------|
D|--------------|--------------|---2---2--0--|--2---4---5--7|
A|-------3--3--5|-------2--2--5|-------------|--------------|
E|--------------|--------------|-------------|0---2---3--5--|

G|--------------|--------------|-------------|--------------|
D|--------------|--------------|---2---2--0--|--2---4---5--7|
A|-------3--3--5|-------2--2--5|-------------|--------------|
E|--------------|--------------|-------------|0---2---3--5--|


[Verse]

G|--------------|--------------|-------------|--------------|
D|--------------|--------------|-------------|--2---4---5--7|
A|--------------|--------------|-------------|--------------|
E|--------------|--------------|-------------|0---2---3--5--|

G|--------------|--------------|-------------|--------------|
D|--------------|--------------|---2---2--0--|--2---4---5--7|
A|-------3--3--5|-------2--2--5|-------------|--------------|
E|--------------|--------------|-------------|0---2---3--5--|

G|--------------|--------------|-------------|--------------|
D|--------------|--------------|---2---2--0--|--2---4---5--7|
A|-------3--3--5|-------2--2--5|-------------|--------------|
E|--------------|--------------|-------------|0---2---3--5--|

G|--------------|--------------|-------------|--------------|
D|--------------|--------------|---2---2--0--|--2---4---5--7|
A|-------3--3--5|-------2--2--5|-------------|--------------|
E|--------------|--------------|-------------|0---2---3--5--|

[Chorus]

G|--------------|--------------|-------------|--------------|
D|--------------|--------------|2------------|--2---4---5--7|
A|3-------------|2-------------|-------------|--------------|
E|--------------|--------------|-------------|0---2---3--5--|

G|--------------|--------------|-------------|--------------|
D|--------------|--------------|2------------|2-------------|
A|3-------------|2-------------|-------------|--------------|
E|--------------|--------------|-------------|--------------|

G|--------------|--------------|-------------|--------------|
D|--------------|--------------|---2---2--0--|--2---4---5--7|
A|-------3--3--5|-------2--2--5|-------------|--------------|
E|--------------|--------------|-------------|0---2---3--5--|

G|--------------|--------------|-------------|--------------|
D|--------------|--------------|---2---2--0--|--2---4---5--7|
A|-------3--3--5|-------2--2--5|-------------|--------------|
E|--------------|--------------|-------------|0---2---3--5--|

G|--------------|--------------|-------------|--------------|
D|--------------|--------------|---2---2--0--|--2---4---5--7|
A|-------3--3--5|-------2--2--5|-------------|--------------|
E|--------------|--------------|-------------|0---2---3--5--|

G|--------------|--------------|-------------|--------------|
D|--------------|--------------|---2---2--0--|--2---4---5--7|
A|-------3--3--5|-------2--2--5|-------------|--------------|
E|--------------|--------------|-------------|0---2---3--5--|


[Bridge]

G|--------------|--------------|-------------|--------------|
D|--------------|--------------|---2---2--0--|--2---4---5--7|
A|--------------|--------------|-------------|--------------|
E|--------------|--------------|-------------|0---2---3--5--|

G|--------------|--------------|-------------|--------------|
D|--------------|--------------|---2---2--0--|--2---4---5--7|
A|-------3--3--5|-------2--2--5|-------------|--------------|
E|--------------|--------------|-------------|0---2---3--5--|

G|--------------|--------------|-------------|--------------|
D|--------------|--------------|---2---2--0--|--2---4---5--7|
A|-------3--3--5|-------2--2--5|-------------|--------------|
E|--------------|--------------|-------------|0---2---3--5--|

G|--------------|--------------|-------------|--------------|
D|--------------|--------------|---2---2--0--|--2---4---5--7|
A|-------3--3--5|-------2--2--5|-------------|--------------|
E|--------------|--------------|-------------|0---2---3--5--|

[Outro]

G|---------------|---------------|---------------|---------------|
D|5-5-5-5-5-5-5-5|5-5-5-5-5-5-5-5|---------------|---------------|
A|---------------|---------------|5-5-5-5-5-5-5-5|5-5-5-5-5-5-5-5|
E|---------------|---------------|---------------|---------------|

G|---------------|---------------|---------------|---------------|
D|2-2-2-2-2-2-2-2|2-2-2-2-2-2-2-2|4-4-4-4-4-4-4-4|4-4-4-4-4-4-4-4|
A|---------------|---------------|---------------|---------------|
E|---------------|---------------|---------------|---------------|

G|---------------|---------------|---------------|---------------|
D|5-5-5-5-5-5-5-5|5-5-5-5-5-5-5-5|---------------|---------------|
A|---------------|---------------|5-5-5-5-5-5-5-5|5-5-5-5-5-5-5-5|
E|---------------|---------------|---------------|---------------|

G|---------------|---------------|---------------|---------------|
D|2-2-2-2-2-2-2-2|2-2-2-2-2-2-2-2|4-4-4-4-4-4-4-4|---------------|
A|---------------|---------------|---------------|5-5-5-5-5-5-5-5|
E|---------------|---------------|---------------|---------------| 

G|---------------|---------------|---------------|---------------|
D|5-5-5-5-5-5-5-5|5-5-5-5-5-5-5-5|---------------|---------------|
A|---------------|---------------|5-5-5-5-5-5-5-5|5-5-5-5-5-5-5-5|
E|---------------|---------------|---------------|---------------|

G|---------------|---------------|---------------|---------------|
D|2-2-2-2-2-2-2-2|2-2-2-2-2-2-2-2|4-4-4-4-4-4-4-4|4-4-4-4-4-4-4-4|
A|---------------|---------------|---------------|---------------|
E|---------------|---------------|---------------|---------------|

G|---------------|---------------|---------------|---------------|
D|5-5-5-5-5-5-5-5|5-5-5-5-5-5-5-5|---------------|---------------|
A|---------------|---------------|5-5-5-5-5-5-5-5|5-5-5-5-5-5-5-5|
E|---------------|---------------|---------------|---------------|

G|---------------|---------------|---------------|---------------|
D|2-2-2-2-2-2-2-2|2-2-2-2-2-2-2-2|4-4-4-4-4-4-4-4|---------------|
A|---------------|---------------|---------------|5-5-5-5-5-5-5-5|
E|---------------|---------------|---------------|---------------| 

G|---------------|---------------|---------------|---------------|
D|---------------|---------------|---------------|---------------|
A|3--------------|3--------------|5--------------|2--------------|
E|---------------|---------------|---------------|---------------|

G|---------------|
D|---------------|
A|3--------------|
E|---------------|






************************************

| x   Dead note
| g   Grace note
| (n) Ghost note
| h   Hammer-on
| p   Pull-off
| r   Release
| >   Accented note
| t   Tapping
| b   Bend
| br  Bend release
| pb  Pre-bend
| pbr Pre-bend release
| /   Slide up
| \   Slide down
| ~   Vibrato
| s   Slap
| P   Pop
| PM  Palm mute
| TR  Trill
| N   Tremolo

************************************
Suggest correction
Give kudos to tab author, rate the tab!
1 2 3 4 5
comments
print report bad tab
guest
You may want to rate the tab now too:
select rating
Wanna post a correction for this tab? Suggest correction