Oops, an error
Loading. Please wait.

All We Are Tab

version 3
version 3

Whole song

5,266 views 3 this week
no commentswrite comment
1 2 3 4 5
accurate
x 4
add to favorites
launch autoscroll
font size
0
reset
how to read this tab
guitar tuner
Tab Pro tools
  • play this tab
  • loop segment
  • change instrument
  • show fretboard
  • metronome
Autoscroll
slow
fast
+/-
esc
set tempo
stop
Contributor
Difficulty
novice
this is my first full tab. i saw that there wasnt a tab that had the accurate power 
or solo so i decided to tab it out. sorry no lyrics. the verses r just chords.

intro BM G D G x2


verse ( every 2 measures switch) BM G D G x2


pre-chorus   A G A G

Chorus
    BM         G      D        A
e|--------------------------------------|   Rythmn
b|--------------------------------------|
g|-------------------7-7-7-7------------|
d|-9-9-9-9--5-5-5-5--7-7-7-7-7-7-7-7----|
a|-9-9-9-9--5-5-5-5--5-5-5-5-7-7-7-7----|
e|-7-7-7-7--3-3-3-3----------5-5-5-5----|


e|-14----14-----15----15-----17----17----15----15-----|
b|----15----15-----15----15-----15----15----15----15--|
g|----------------------------------------------------|  Lead
d|----------------------------------------------------|
a|----------------------------------------------------|
e|----------------------------------------------------|

Pre-Verse

e|--------------------------------|
b|--------------------------------|  Rythmn
g|-5-5-5-5-5-5-5-5----------------|
d|-5-5-5-5-5-5-5-5--7-------------|
a|-3-3-3-3-3-3-3-3--7-~~----------|
e|------------------5-------------|


e|-8----8----8----8----9~~-----12---10~~-----------|
b|---10---10---10---1o-----------------------------|
g|-------------------------------------------------|
d|-------------------------------------------------|
a|-------------------------------------------------|
e|-------------------------------------------------|

repeat verse

repeat pre chorus

repeat chorus

repeat pre verse

bridge


e|----------------------------------------------| Rythmn
b|----------------------------------------------|
g|-5-5-5-5---------------7-7-7-7----------------|
d|-5-5-5-5-X2-7-7-7-7----7-7-7-7-X2--7----------|
a|-3-3-3-3----7-7-7-7-X2-5-5-5-5-----7-~~-------|
e|------------5-5-5-5----------------5----------|


e|-8----8----8----8----9----9----9----9----10----10----10----10-----|
b|---10---10---10---1o---10---10---10---10----10----10----10---10~~-|
g|------------------------------------------------------------------|
d|------------------------------------------------------------------|
a|------------------------------------------------------------------|
e|------------------------------------------------------------------|

repeat chrous 2 times.


thats about it i think.sorry if i left portions out. feel free to submit corrections.
comments
print report bad tab
I want to post or [tab]
guest
You may want to rate the tab now too:
select rating
Please do not post tabs as comments. Select "correction" instead!