Oops, an error
Loading. Please wait.
We have an official Apologize tab made by UG professional guitarists. Check out the tab »
×
56,672 views 24 this week
no commentswrite comment
1 2 3 4 5
x 4
add to favorites
launch autoscroll
font size
0
reset
how to read this tab
guitar tuner
×
Best way to learn
"Apologize"
Autoscroll
slow
fast
+/-
esc
set tempo
stop
Author
Difficulty
  follow
intermediate
[Intro]
 0:00-0:47
Guitar 1 only
e|--------------------------------------------------------|
B|-4---4--4--4---6---6--6--6---4---4--4--4--3---3--3--3---|
G|---0--0--0--0----0--0--0--0----0--0--0--0---0--0--0--0--|x5
D|--------------------------------------------------------|
A|-3~------------8~------------6~-----------5~------------|
E|--------------------------------------------------------|

  play this 6th time
e|--------------------------------------------|
B|-4---4--4--4---6---6--6--6---4---4--4--4----|
G|---0--0--0--0----0--0--0--0----0--0--0--0---|
D|--------------------------------------------|
A|-3~------------8~------------6~-------------|
E|--------------------------------------------|


[Chorus]
GUITAR 1
e|--------------------------------------------------------|
B|-4---4--4--4---6---6--6--6---4---4--4--4--3---3--3--3---|
G|---0--0--0--0----0--0--0--0----0--0--0--0---0--0--0--0--|x2
D|--------------------------------------------------------|
A|-3------3------8------8------6------6-----5------5------|
E|--------------------------------------------------------|

GUITAR 2
e|-18----18-20-18-|---16-15-13-|
B|----16----------|x3----------|
G|----------------|------------|x2
D|-----------------------------|
A|-----------------------------|
E|-----------------------------|

[Bridge]
e|--------------------------------------------------------|
B|-16----16----16----16-----18----18----18----18----------|
G|----15----15----15----15-----15----15----15----15-------|
D|--------------------------------------------------------|
A|-15----------15-----------15----------15----------------|
E|--------------------------------------------------------|

e|--------------------------------------------------------|
B|-20----20----20----20-----18----18----18-----16-15-13---|
G|----17----17----17----17-----15----15----15-------------|
D|--------------------------------------------------------|
A|-17----------17-----------15----------15----------------|
E|--------------------------------------------------------|

GUITAR 1
e|--------------------------------------------------------|
B|-4---4--4--4---6---6--6--6---4---4--4--4--3---3--3--3---|
G|---0--0--0--0----0--0--0--0----0--0--0--0---0--0--0--0--|
D|--------------------------------------------------------|
A|-3------3------8------8------6------6-----5------5------|
E|--------------------------------------------------------|

GUITAR 2   comes in at 1:29
e|--------------------|----------11-13-------11-13|-------|
B|------8-11------8-11|x4--11-13-------11-13------|x4-----|
G|-8-10------8-10-----|---------------------------|-------|
D|--------------------------------------------------------|
A|--------------------------------------------------------|
E|--------------------------------------------------------|

it goes:
Beginning
[Refrain]
[Bridge]
[Verse]
[Refrain]
[bridge] twice
[refrain] twice
Suggest correction
comments
print report bad tab
guest
You may want to rate the tab now too:
select rating
Wanna post a correction for this tab? Suggest correction