Oops, an error
Loading. Please wait.

Counting Stars Chords

version 2
version 2

Interactive

Video

6,227,161 views 15,831 this week
88 commentsread comments
1 2 3 4 5
excellent!
x 2,396
add to favorites
launch autoscroll
font size
0
reset
transpose
0
reset
display chords
guitar tuner
Tab Pro tools
  • play this tab
  • loop segment
  • change instrument
  • show fretboard
  • metronome
×
Best way to learn
"Counting Stars"
Autoscroll
slow
fast
+/-
esc
set tempo
stop
Contributor
Difficulty
Capo
intermediate
4th fret
[Intro]

   Am                  C                      G
e|------0---------0----------0-----------0----------------------------------|
B|------1---------1----------1-----------1----------3-----------3-----------|
G|---2----2----2----2-----0-----0-----0-----0-------0-----------0-----------|
D|-----------------------------------------------0-----0-----0-----0--------|
A|-0---------0---------3-----------3----------------------------------------|
E|--------------------------------------------3-----------3-----------------|

    F
e|--------------------------------------------------------------------------|
B|--------1------------1----------------------------------------------------|
G|--------2------------2----------------------------------------------------|
D|-----3-----3------3-----3-------------------------------------------------|
A|--3------------3----------------------------------------------------------|
E|--------------------------------------------------------------------------|

   Am                  C                      G
e|------0---------0----------0-----------0----------------------------------|
B|------1---------1----------1-----------1----------3-----------3-----------|
G|---2----2----2----2-----0-----0-----0-----0-------0-----------0-----------|
D|-----------------------------------------------0-----0-----0-----0--------|
A|-0---------0---------3-----------3----------------------------------------|
E|--------------------------------------------3-----------3-----------------|

    F
e|--------------------------------------------------------------------------|
B|--------1------------1-------------1---------------1----------------------|
G|--------2------------2-------------2---------------2----------------------|
D|-----3-----3------3-----3-------3-----3---------3-----3-------------------|
A|--3------------3-------------3---------------3----------------------------|
E|--------------------------------------------------------------------------|

  (background part)
e|--3--0-----3--0-----3--0-----------------------------------|
B|--------3--------3--------3---5----------------------------|
G|-----------------------------------------------------------|
D|-----------------------------------------------------------|
A|-----------------------------------------------------------|
E|-----------------------------------------------------------|

Am                 C
Lately, I've been, I've been losing sleep
G                              F
Dreaming about the things that we could be
    Am               C
But baby, I've been, I've been praying hard,
G                   
Said, no more counting dollars
F                              F
We'll be counting stars, yeah we'll be counting stars


[Verse]

           Am
I see this life like a swinging vine
C
Swing my heart across the line
G
In my face is flashing signs
F
Seek it out and ye shall find
Am
Oh, but I'm not that old
C
Young, but I'm not that bold
G
I don't think the world is sold
F
I'm just doing what we're told


[Pre-Chorus]

Am C                G
I feel something so right
          F
Doing the wrong thing
Am C                G
I feel something so wrong
          F
Doing the right thing
F
I could lie, could lie, could lie
F 
Everything that kills me makes me feel alive


[Chorus]

Am                 C   
Lately, I've been, I've been losing sleep
G                              F
Dreaming about the things that we could be
Am                   C               
But baby, I've been, I've been praying hard,
G
Said, no more counting dollars
F
We'll be counting stars
Am                 C
Lately, I've been, I've been losing sleep
G                              F
Dreaming about the things that we could be
Am                   C
But baby, I've been, I've been praying hard,
G                       
Said, no more counting dollars
F
We'll be, we'll be counting stars


[Verse]

           Am 
I feel the love and I feel it burn
C
Down this river, every turn
G
Hope is a four-letter word
F
Make that money, watch it burn
Am
Oh, but I'm not that old
C
Young, but I'm not that bold
G
I don't think the world is sold
F
I'm just doing what we're told


[Pre-Chorus]

Am  C                 G
I feel something so wrong
          F
Doing the right thing
        F
I could lie, could lie, could lie
F
Everything that drowns me makes me wanna fly


[Chorus]

Am                 C
Lately, I've been, I've been losing sleep
G                              F
Dreaming about the things that we could be
    Am               C
But baby, I've been, I've been praying hard,
G         
Said, no more counting dollars
F
We'll be counting stars
Am                 C
Lately, I've been, I've been losing sleep
G                              F
Dreaming about the things that we could be
    Am               C
But baby, I've been, I've been praying hard,
G              
Said, no more counting dollars
F
We'll be, we'll be counting stars


[Bridge]

N.C.
Take that money
N.C.
Watch it burn
N.C.                                                 
Sink in the river
N.C.                                                 
Sink in the river
N.C.                                                 
Sink in the river
N.C.                                                 
Sink in the river
N.C.
The lessons are learned..


[Interlude]

F               Dm
Everything that kills me makes feel alive


[Chorus]

Am                 C
Lately, I've been, I've been losing sleep
G                              F
Dreaming about the things that we could be
    Am               C
But baby, I've been, I've been praying hard,
G           
Said, no more counting dollars
F
We'll be counting stars
Am                 C
Lately, I've been, I've been losing sleep
G                              F
Dreaming about the things that we could be
    Am               C
But baby, I've been, I've been praying hard,
G                        
Said, no more counting dollars
F
We'll be, we'll be, counting stars


[Outro]

Am
Take that money, watch it burn
C
Sink in the river, the lessons are learned
G
Take that money, Watch it burn
F
Sink in the river, The lessons are learned
Am
Take that money, Watch it burn
C
Sink in the river, The lessons are learned
G
Take that money, Watch it burn
F 
Sink in the river, The lessons are learned
comments
print report bad tab
88 comments total. Showing first comments. show 1 bad comment
+67 reply
tao072002 wrote on March 27 2013, 11:33 pm

Easy to follow, simple chord progression 5* love their new album

+24 reply
dom11011 wrote on April 21 2013, 12:40 pm

I like the no capo style better. Just saying.

I want to post or [tab]
guest
You may want to rate the tab now too:
select rating
Please do not post tabs as comments. Select "correction" instead!