Oops, an error
Loading. Please wait.

Dream Bass

829 views 12 this week
no commentswrite comment
1 2 3 4 5
x 4
add to favorites
launch autoscroll
font size
0
reset
guitar tuner
Autoscroll
slow
fast
+/-
esc
set tempo
stop
Author
[Intro]

G|----------|-----------|-----------|-------------|
D|----------|-----------|-----------|-------------|
A|----------|5--5----5-7|-----------|-------------|
E|-----7--7-|------7----|-----3--3--|5---5---0----|

G|----------|-----------|-----------|-------------|
D|----------|-----------|-----------|-------------|
A|----------|5--5----5-7|-----------|--------7--5-|
E|-----7--7-|------7----|-----3--3--|5--5--5------|

[Verse]

G|----------|-----------|-----------|-------------|
D|----------|-----------|-----------|-------------|
A|----------|5--5----5-7|-----------|-------------|
E|-----7--7-|------7----|-----3--3--|5---5---0----|

G|----------|-----------|-----------|-------------|
D|----------|-----------|-----------|-------------|
A|----------|5--5----5-7|-----------|--------7--5-|
E|-----7--7-|------7----|-----3--3--|5--5--5------|

G|----------|-----------|-----------|-------------|
D|----------|-----------|-----------|-------------|
A|----------|5--5----5-7|-----------|-------------|
E|-----7--7-|------7----|-----3--3--|5---5---0----|

G|----------|-----------|-----------|-------------|
D|----------|-----------|-----------|-------------|
A|----------|5--5----5-7|-----------|--------7--5-|
E|-----7--7-|------7----|-----3--3--|5--5--5------|

G|----------|-----------|-----------|-------------|
D|----------|-----------|-----------|-------------|
A|----------|5--5----5-7|-----------|-------------|
E|-----7--7-|------7----|-----3--3--|5---5---0----|

G|----------|-----------|-----------|-------------|
D|----------|-----------|-----------|-------------|
A|----------|5--5----5-7|-----------|--------7--5-|
E|-----7--7-|------7----|-----3--3--|5--5--5------|

G|----------|-----------|-----------|-------------|
D|----------|-----------|-----------|-------------|
A|----------|5--5----5-7|-----------|-------------|
E|-----7--7-|------7----|-----3--3--|5---5---0----|

G|----------|-----------|-----------|-------------|
D|----------|-----------|-----------|-------------|
A|----------|5--5----5-7|-----------|--------7--5-|
E|-----7--7-|------7----|-----3--3--|5--5--5------|

[Chorus]

G|----------|-----------|-----------|-------------|
D|----------|-----------|-----------|-------------|
A|----------|5----------|-----------|-------------|
E|7---------|-----------|3----------|5------------|

G|----------|-----------|-----------|-------------|
D|----------|-----------|-----------|-------------|
A|----------|5----------|-----------|-------------|
E|7---------|-----------|3----------|5------------|

G|----------|-----------|-----------|-------------|
D|----------|-----------|-----------|-------------|
A|----------|5----------|-----------|-------------|
E|7---------|-----------|3----------|5------------|

G|----------|-----------|-----------|-------------|
D|----------|-----------|-----------|-------------|
A|----------|5----------|-----------|-------------|
E|7---------|-----------|3----------|5------------|

G|----------|-----------|-----------|-------------|
D|----------|-----------|-----------|-------------|
A|----------|5--5----5-7|-----------|-------------|
E|-----7--7-|------7----|-----3--3--|5---5---0----|

G|----------|-----------|-----------|-------------|
D|----------|-----------|-----------|-------------|
A|----------|5--5----5-7|-----------|--------7--5-|
E|-----7--7-|------7----|-----3--3--|5--5--5------|

G|----------|-----------|-----------|-------------|
D|----------|-----------|-----------|-------------|
A|----------|5--5----5-7|-----------|-------------|
E|-----7--7-|------7----|-----3--3--|5---5---0----|

G|----------|-----------|-----------|-------------|
D|----------|-----------|-----------|-------------|
A|----------|5--5----5-7|-----------|--------7--5-|
E|-----7--7-|------7----|-----3--3--|5--5--5------|

[Verse]

G|----------|-----------|-----------|-------------|
D|----------|-----------|-----------|-------------|
A|----------|5--5----5-7|-----------|-------------|
E|-----7--7-|------7----|-----3--3--|5---5---0----|

G|----------|-----------|-----------|-------------|
D|----------|-----------|-----------|-------------|
A|----------|5--5----5-7|-----------|--------7--5-|
E|-----7--7-|------7----|-----3--3--|5--5--5------|

G|----------|-----------|-----------|-------------|
D|----------|-----------|-----------|-------------|
A|----------|5--5----5-7|-----------|-------------|
E|-----7--7-|------7----|-----3--3--|5---5---0----|

G|----------|-----------|-----------|-------------|
D|----------|-----------|-----------|-------------|
A|----------|5--5----5-7|-----------|--------7--5-|
E|-----7--7-|------7----|-----3--3--|5--5--5------|

G|----------|-----------|-----------|-------------|
D|----------|-----------|-----------|-------------|
A|----------|5--5----5-7|-----------|-------------|
E|-----7--7-|------7----|-----3--3--|5---5---0----|

G|----------|-----------|-----------|-------------|
D|----------|-----------|-----------|-------------|
A|----------|5--5----5-7|-----------|--------7--5-|
E|-----7--7-|------7----|-----3--3--|5--5--5------|

[Chorus]

G|----------|-----------|-----------|-------------|
D|----------|-----------|-----------|-------------|
A|----------|5----------|-----------|-------------|
E|7---------|-----------|3----------|5------------|

G|----------|-----------|-----------|-------------|
D|----------|-----------|-----------|-------------|
A|----------|5----------|-----------|-------------|
E|7---------|-----------|3----------|5------------|

G|----------|-----------|-----------|-------------|
D|----------|-----------|-----------|-------------|
A|----------|5----------|-----------|-------------|
E|7---------|-----------|3----------|5------------|

G|----------|-----------|-----------|-------------|
D|----------|-----------|-----------|-------------|
A|----------|5----------|-----------|-------------|
E|7---------|-----------|3----------|5------------|

G|----------|-----------|-----------|-------------|
D|----------|-----------|-----------|-------------|
A|----------|5--5----5-7|-----------|-------------|
E|-----7--7-|------7----|-----3--3--|5---5---0----|

G|----------|-----------|-----------|-------------|
D|----------|-----------|-----------|-------------|
A|----------|5--5----5-7|-----------|--------7--5-|
E|-----7--7-|------7----|-----3--3--|5--5--5------|

G|----------|-----------|-----------|-------------|
D|----------|-----------|-----------|-------------|
A|----------|5--5----5-7|-----------|-------------|
E|-----7--7-|------7----|-----3--3--|5---5---0----|

G|----------|-----------|-----------|-------------|
D|----------|-----------|-----------|-------------|
A|----------|5--5----5-7|-----------|--------7--5-|
E|-----7--7-|------7----|-----3--3--|5--5--5------|

G|----------|-----------|-----------|-------------|
D|----------|-----------|-----------|-------------|
A|----------|5--5----5-7|-----------|-------------|
E|-----7--7-|------7----|-----3--3--|5---5---0----|

G|----------|-----------|-----------|-------------|
D|----------|-----------|-----------|-------------|
A|----------|5--5----5-7|-----------|--------7--5-|
E|-----7--7-|------7----|-----3--3--|5--5--5------|

[Bridge]

G|----------|-----------|-----------|-------------|
D|----------|-----------|-----------|-------------|
A|----------|5--5----5-7|-----------|-------------|
E|-----7--7-|------7----|-----3--3--|5---5---0----|

G|----------|-----------|-----------|-------------|
D|----------|-----------|-----------|-------------|
A|----------|5--5----5-7|-----------|--------7--5-|
E|-----7--7-|------7----|-----3--3--|5--5--5------|

G|----------|-----------|-----------|-------------|
D|----------|-----------|-----------|-------------|
A|----------|5--5----5-7|-----------|-------------|
E|-----7--7-|------7----|-----3--3--|5---5---0----|

G|----------|-----------|-----------|-------------|
D|----------|-----------|-----------|-------------|
A|----------|5--5----5-7|-----------|--------7--5-|
E|-----7--7-|------7----|-----3--3--|5--5--5------|

[Chorus]

G|----------|-----------|-----------|-------------|
D|----------|-----------|-----------|-------------|
A|----------|5--5----5-7|-----------|-------------|
E|-----7--7-|------7----|-----3--3--|5---5---0----|

G|----------|-----------|-----------|-------------|
D|----------|-----------|-----------|-------------|
A|----------|5--5----5-7|-----------|--------7--5-|
E|-----7--7-|------7----|-----3--3--|5--5--5------|

G|----------|-----------|-----------|-------------|
D|----------|-----------|-----------|-------------|
A|----------|5--5----5-7|-----------|-------------|
E|-----7--7-|------7----|-----3--3--|5---5---0----|

G|----------|-----------|-----------|-------------|
D|----------|-----------|-----------|-------------|
A|----------|5--5----5-7|-----------|--------7--5-|
E|-----7--7-|------7----|-----3--3--|5--5--5------|

G|----------|-----------|-----------|-------------|
D|----------|-----------|-----------|-------------|
A|----------|5--5----5-7|-----------|-------------|
E|-----7--7-|------7----|-----3--3--|5---5---0----|

G|----------|-----------|-----------|-------------|
D|----------|-----------|-----------|-------------|
A|----------|5--5----5-7|-----------|--------7--5-|
E|-----7--7-|------7----|-----3--3--|5--5--5------|
Suggest correction
comments
print report bad tab
guest
You may want to rate the tab now too:
select rating
Wanna post a correction for this tab? Suggest correction