Oops, an error
Loading. Please wait.

Dream Tab

136 views 12 this week
no commentswrite comment
1 2 3 4 5
3 more votes to show rating
add to favorites
launch autoscroll
font size
0
reset
how to read this tab
guitar tuner
Autoscroll
slow
fast
+/-
esc
set tempo
stop
Help us to improve Ultimate-Guitar.com Take our survey!
×
Author
Difficulty
novice
Guitar first comes in during pre-chorus

"look for your sunshine..."

e|---------------------------------------------------------------------------|
B|----7---------7---7-------------------7-------7---7------------------------|
G|------7-----------------4-----6---6-----7---------------4-----6---6--------| x2
D|------------7---7---------------------------7---7--------------------------|
A|--------4/5-----------5-----7---7---------5-----------5-----7---7----------|
E|--7-----------------3-----5---------7---------------3-----5----------------|

post-chorus at 1:13

e|---------------------------------------------------------------------------|
B|--------15-------19---------12-------14------------------------------------|
G|---------------------------------------------------------------------------| x2
D|-----16-------19---------12-------14---------------------------------------|
A|--14-------17---------10-------12------------------------------------------|
E|---------------------------------------------------------------------------|

verse 2 chord progression

e|---------------------------------------------------------------------------|
B|----------3-3-3-3---------2-2-2-2------------------------------------------|
G|--4-4-4-4-4-4-4-4-4-4-4-4-2-2-2-2------------------------------------------| x6
D|--4-4-4-4-4-4-4-4-4-4-4-4-2-2-2-2------------------------------------------|
A|--2-2-2-2-2-2-2-2-2-2-2-2--------------------------------------------------|
E|---------------------------------------------------------------------------|

pre-chorus 2

"look for your sunshine..."

e|---------------------------------------------------------------------------|
B|----7---------7---7-------------------7-------7---7------------------------|
G|------7-----------------4-----6---6-----7---------------4-----6---6--------| x2
D|------------7---7---------------------------7---7--------------------------|
A|--------4/5-----------5-----7---7---------5-----------5-----7---7----------|
E|--7-----------------3-----5---------7---------------3-----5----------------|

post-chorus 2 2:08

e|---------------------------------------------------------------------------|
B|----------3-3-3-3---------2-2-2-2------------------------------------------|
G|--4-4-4-4-4-4-4-4-4-4-4-4-2-2-2-2------------------------------------------| x2
D|--4-4-4-4-4-4-4-4-4-4-4-4-2-2-2-2------------------------------------------|
A|--2-2-2-2-2-2-2-2-2-2-2-2--------------------------------------------------|
E|---------------------------------------------------------------------------|

e|---------------------------------------------------------------------------|
B|--------15-------19---------12-------14------------------------------------|
G|---------------------------------------------------------------------------| x4
D|-----16-------19---------12-------14---------------------------------------|
A|--14-------17---------10-------12------------------------------------------|
E|---------------------------------------------------------------------------|

outro 2:53

e|---------------------------------------------------------------------------|
B|----------3-3-3-3---------2-2-2-2------------------------------------------|
G|--4-4-4-4-4-4-4-4-4-4-4-4-2-2-2-2------------------------------------------| x6
D|--4-4-4-4-4-4-4-4-4-4-4-4-2-2-2-2------------------------------------------|
A|--2-2-2-2-2-2-2-2-2-2-2-2--------------------------------------------------|
E|---------------------------------------------------------------------------|

e|---------------------------------------------------------------------------|
B|--------15-------19---------12-------14------------------------------------|
G|---------------------------------------------------------------------------| x2
D|-----16-------19---------12-------14---------------------------------------|
A|--14-------17---------10-------12------------------------------------------|
E|---------------------------------------------------------------------------|



************************************

| /   Slide up

************************************
Suggest correction
Give kudos to tab author, rate the tab!
1 2 3 4 5
comments
print report bad tab
guest
You may want to rate the tab now too:
select rating
Wanna post a correction for this tab? Suggest correction