Oops, an error
Loading. Please wait.

Future Looks Good Chords

version 3
version 3

Whole song

  • Contains Lyrics, Chords (With diagrams), Tabs (Cho... Show more
  • This is the original way how the band plays it - i... Show more

Video

1,042 views 12 this week
no commentswrite comment
1 2 3 4 5
1 last vote to show rating
add to favorites
launch autoscroll
font size
0
reset
transpose
0
reset
display chords
guitar tuner
Autoscroll
slow
fast
+/-
esc
set tempo
stop
Author
Difficulty
Tuning
intermediate
D# G# C# F# A# D#
About this tab version
Contains Lyrics, Chords (With diagrams), Tabs (Chords and Melodies), Tempo and Strumming Pattern. Was this info helpful? Yes No
Strumming () Is this strumming pattern correct? Yes No
Whole Song 124 bpm
1
 
&
 
2
 
&
 
3
 
&
 
4
 
&
 
Listen
[Intro]
F Gm Eb Bb

[Verse 1]
F       Gm
Woke up starin' at this
                Eb         Bb
Starin' at this empty room
F
Looked at
  Gm                                    Eb                Bb
a Thousand different pictures that your mother took of you
        F          Gm
You see I had this crazy dream last night
             Eb          Bb
This man, he talked to me
   F
He told me
Gm                              Eb           Bb
Everything that's good and bad about my history

[Chorus]
                 F
But he said that you are
Gm          Eb    Bb
You are the future
             F
He said that you are
Gm          Eb    Bb
You are the future
                         F Gm Eb Bb
And the future looks good

(Melody)                 

                 F    Gm Eb Bb
The future looks good



[Verse 2]
   F       Gm
Oh call me any time that
                  Eb       Bb
Every time you're losin' it
    F
And tell me
Gm                      Eb                     Bb
Anyone and everyone who makes you feee-e-e-e-e-el like shit
        F
Because you know
Gm                 Eb           Bb     
Anybody, everybody else can lie
          F
But honey I won't
Gm                             Eb            Bb   
See you with a, see you with a broken set of eyes

[Chorus]
                 F
I swear that you are
Gm          Eb    Bb
You are the future
             F
I swear that you are
Gm          Eb    Bb
You are the future
                         F Gm 
And the future looks good

(Melody)   
    Eb   Bb
Oh, Yeah              

                 F    Gm
The future looks good
    Eb   Bb
Oh, Yeah

[Instrumental]

(Melody)
                 F   Gm
The future looks good
   Eb   Bb
Oh, yeah
                 F   Gm
The future looks good
    Eb   Bb
Oh, yeah
F    Gm
You, you
Eb   Bb
You
F    Gm
You, you
Eb   Bb
You

[Outro]
F       Gm
Woke up starin' at this
                Eb         Bb
Starin' at this empty room
F
Looked at
  Gm                                    Eb                Bb 
a Thousand different pictures that your mother took of you

------------------------------------------------------------

Melody

D#|------------------------11-11-11-11-11-----11-11-11-11-----------------|
A#|-11-11-11-11-9-11-12-12----------------9-9--------------------12-12-12-|
F#|-------------------------------------------------------11--11----------|    X2 
C#|-----------------------------------------------------------------------|
G#|-----------------------------------------------------------------------|
D#|-----------------------------------------------------------------------|
 
[Instrumental]

D#|-14-16-14-11----11------14-16-14-11----11------------------------------|
A#|-------------14----14---------------14----14-12------------------------|
F#|------------------------------------------------13---------------------|
C#|-----------------------------------------------------------------------|
G#|-----------------------------------------------------------------------|
D#|-----------------------------------------------------------------------|
                                                                            X2
D#|-14-16-14-11----11----14-11----------11-14-11--------------------------|
A#|-------------14----14-------14--14-14----------------------------------|
F#|-----------------------------------------------------------------------|
C#|-----------------------------------------------------------------------|
G#|-----------------------------------------------------------------------|
D#|-----------------------------------------------------------------------|

 
Song: Future Looks Good
Artist: OneRepublic
Album: Oh My My, 2016
Suggest correction
Give kudos to tab author, rate the tab!
1 2 3 4 5
comments
print report bad tab
guest
You may want to rate the tab now too:
select rating
Wanna post a correction for this tab? Suggest correction