Oops, an error
Loading. Please wait.

If I Lose Myself Tab

version 1
version 1

Whole song

Interactive

11,038 views 39 this week
1 commentread comment
1 2 3 4 5
excellent!
x 5
add to favorites
launch autoscroll
font size
0
reset
how to read this tab
guitar tuner
Tab Pro tools
  • play this tab
  • loop segment
  • change instrument
  • show fretboard
  • metronome
×
Best way to learn
"If I Lose Myself"
Autoscroll
slow
fast
+/-
esc
set tempo
stop
Contributor
Difficulty
novice
OneRepublic - If I Lose Myself

I arranged it for 2 guitars, hope U like it. :)

Tuning - Standard


Intro an Verse 1(just guitar 1):

|---------------------------------------------------------------------------------|
|-------------------------------------8-8-------------------------------------8-8-|
|-11-11-9-9-11-11-9-9-11-11-9-9-11-11-----11-11-9-9-11-11-9-9-11-11-9-9-11-11-----|
|---------------------------------------------------------------------------------|
|---------------------------------------------------------------------------------|\
|---------------------------------------------------------------------------------| \
                                                                                     x4
|---------------------------------------------------------------------------------| /
|------------------------------------10-10-----------------------------------12-12|/
|-11-11-9-9-11-11-9-9-11-11-9-9-11-11-----11-11-9-9-11-11-9-9-11-11-9-9-11-11-----|
|---------------------------------------------------------------------------------|
|---------------------------------------------------------------------------------|
|---------------------------------------------------------------------------------|
Chorus - guitar 2 enters(1st chorus is 1 measure longer than 2nd):

|---------------------------------------------------------------------------------|
|-------------------------------------8-8-------------------------------------8-8-|
|-11-11-9-9-11-11-9-9-11-11-9-9-11-11-----11-11-9-9-11-11-9-9-11-11-9-9-11-11-----| G1
|---------------------------------------------------------------------------------|
|---------------------------------------------------------------------------------|
|---------------------------------------------------------------------------------|
| Bm                  G                   D                                       |
|-2-------------------3-------------------2---------------------------------------|
|-3-------------------3-------------------3---------------------------------------|
|-4-------------------4-------------------2---------------------------------------| G2
|-4-------------------5-------------------0---------------------------------------|
|-2-------------------5-----------------------------------------------------------|
|---------------------3-----------------------------------------------------------|

|---------------------------------------------------------------------------------|
|------------------------------------10-10-----------------------------------12-12|
|-11-11-9-9-11-11-9-9-11-11-9-9-11-11-----11-11-9-9-11-11-9-9-11-11-9-9-11-11-----| G1
|---------------------------------------------------------------------------------|
|---------------------------------------------------------------------------------|
|---------------------------------------------------------------------------------|
| Bm                  G                   D                                       |
|-2-------------------3-------------------2---------------------------------------|
|-3-------------------3-------------------3---------------------------------------|
|-4-------------------4-------------------2---------------------------------------| G2
|-4-------------------5-------------------0---------------------------------------|
|-2-------------------5-----------------------------------------------------------|
|---------------------3-----------------------------------------------------------|

On 2nd repeat start with power chords:

|---------------------------------------------------------------------------------|
|-------------------------------------8-8-------------------------------------8-8-|
|-11-11-9-9-11-11-9-9-11-11-9-9-11-11-----11-11-9-9-11-11-9-9-11-11-9-9-11-11-----| G1
|---------------------------------------------------------------------------------|
|---------------------------------------------------------------------------------|
|---------------------------------------------------------------------------------|
| B5                  G5                  D5                                      |
|---------------------------------------------------------------------------------|
|---------------------------------------------------------------------------------|
|-----------------------------------------2-2-2-2-2-2-2-2-2-2-2-2-2-2-2-2---------| G2
|-4-4-4-4-4-4-4-4-------------------------0-0-0-0-0-0-0-0-0-0-0-0-0-0-0-0---------|
|-2-2-2-2-2-2-2-2-----5-5-5-5-5-5-5-5---------------------------------------------|
|---------------------3-3-3-3-3-3-3-3---------------------------------------------|

|---------------------------------------------------------------------------------|
|------------------------------------10-10-----------------------------------12-12|
|-11-11-9-9-11-11-9-9-11-11-9-9-11-11-----11-11-9-9-11-11-9-9-11-11-9-9-11-11-----| G1
|---------------------------------------------------------------------------------|
|---------------------------------------------------------------------------------|
|---------------------------------------------------------------------------------|
| B5                  G5                  D5                                      |
|---------------------------------------------------------------------------------|
|---------------------------------------------------------------------------------|
|-----------------------------------------2-2-2-2-2-2-2-2-2-2-2-2-2-2-2-2---------| G2
|-4-4-4-4-4-4-4-4-------------------------0-0-0-0-0-0-0-0-0-0-0-0-0-0-0-0---------|
|-2-2-2-2-2-2-2-2-----5-5-5-5-5-5-5-5---------------------------------------------|
|---------------------3-3-3-3-3-3-3-3---------------------------------------------|

|-----------------------------------------|
|------------------------------------12-12|
|-11-11-9-9-11-11-9-9-11-11-9-9-11-11-----| G1
|-----------------------------------------|
|-----------------------------------------|
|-----------------------------------------|
|                                         |
|-----------------------------------------|
|-----------------------------------------|
|-2-2-2-2-2-2-2-2-2-2-2-2-2-2-2-2---------| G2
|-0-0-0-0-0-0-0-0-0-0-0-0-0-0-0-0---------|
|-----------------------------------------|
|-----------------------------------------|


*NOTE - There's no pause between power chords, you play them as many times as in the tab.
        That space is there because 10's and 12's on B string, and 11's on G string took 
        more space. Did it for the synchronization with 1st guitar.


Instrumental(Guitar 2 strums chords):

|---------------------------------------------------------------------------------|
|-------------------------------------8-8-------------------------------------8-8-|
|-11-11-9-9-11-11-9-9-11-11-9-9-11-11-----11-11-9-9-11-11-9-9-11-11-9-9-11-11-----| G1
|---------------------------------------------------------------------------------|
|---------------------------------------------------------------------------------|
|---------------------------------------------------------------------------------|
| Bm                  G                   D                                       |
|-2-------------------3-------------------2---------------------------------------|
|-3-------------------3-------------------3---------------------------------------|
|-4-------------------4-------------------2---------------------------------------| G2
|-4-------------------5-------------------0---------------------------------------|
|-2-------------------5-----------------------------------------------------------|
|---------------------3-----------------------------------------------------------|

|---------------------------------------------------------------------------------|
|------------------------------------10-10-----------------------------------12-12|
|-11-11-9-9-11-11-9-9-11-11-9-9-11-11-----11-11-9-9-11-11-9-9-11-11-9-9-11-11-----| G1
|---------------------------------------------------------------------------------|
|---------------------------------------------------------------------------------|
|---------------------------------------------------------------------------------|
| Bm                  G                   D                                       |
|-2-------------------3-------------------2---------------------------------------|
|-3-------------------3-------------------3---------------------------------------|
|-4-------------------4-------------------2---------------------------------------| G2
|-4-------------------5-------------------0---------------------------------------|
|-2-------------------5-----------------------------------------------------------|
|---------------------3-----------------------------------------------------------|


Verse 2 - Guitar 2 plays power chords, but small pause on Guitar 1 
          in beginning:

|---------------------------------------------------------------------------------|
|-----------------------------------------------------------------------------8-8-|
|-----------------------------------------11-11-9-9-11-11-9-9-11-11-9-9-11-11-----| G1
|---------------------------------------------------------------------------------|
|---------------------------------------------------------------------------------|
|---------------------------------------------------------------------------------|
| B5                  G5                  D5                                      |
|---------------------------------------------------------------------------------|
|---------------------------------------------------------------------------------|
|-----------------------------------------2-2-2-2-2-2-2-2-2-2-2-2-2-2-2-2---------| G2
|-4-4-4-4-4-4-4-4-------------------------0-0-0-0-0-0-0-0-0-0-0-0-0-0-0-0---------|
|-2-2-2-2-2-2-2-2-----5-5-5-5-5-5-5-5---------------------------------------------|
|---------------------3-3-3-3-3-3-3-3---------------------------------------------|

... the rest goes the same.


Chorus 2 - same as 1st, but one measure shorter (without extended
           part in the end)

Instrumental - same as 1st one

Chorus 3 - same as instrumental

Outro(1 strum per chord):

  Bm              Bm      G       D               A
|-2---------------2-------3-------2---------------0-----------------|
|-3---------------3-------3-------3---------------2-----------------|
|-4---------------4-------4-------2---------------2-----------------|
|-4---------------4-------5-------0---------------2-----------------|
|-2---------------2-------5-----------------------0-----------------|
|-------------------------3-----------------------------------------|

  Bm              Bm      G       D       Bm      A
|-2---------------2-------3-------2-------2-------0-----------------|
|-3---------------3-------3-------3-------3-------2-----------------|
|-4---------------4-------4-------2-------4-------2-----------------|
|-4---------------4-------5-------0-------4-------2-----------------|
|-2---------------2-------5---------------2-------0-----------------|
|-------------------------3-----------------------------------------|
comments
print report bad tab
1 comment total.
0 reply
Thycon wrote on July 12 2013, 09:43 am

|-------------------------------------------------------------------|
|-----------------------------8-8-----------------------------8-8---|
|-7-7-----7-7-----7-7-----7-7-----7-7-----7-7-----7-7-----7-7-------|
|-----7-7-----7-7-----7-7-------------7-7-----7-7-----7-7-----------|
|-------------------------------------------------------------------|
|-------------------------------------------------------------------|


teh whole thing is bullshizzle, it should be something like


|-------------------------------------------------------------------|
|--------------------------------------8-8--------------------------|
|--11-11-9-9-11-11-9-9-11-11-9-9-11-11------------------------------|
|-------------------------------------------------------------------|
|-------------------------------------------------------------------|
|-------------------------------------------------------------------|


repeated... also every second 8-8 can be changed with 12-12 on the same string as in live :-)

I want to post or [tab]
guest
You may want to rate the tab now too:
select rating
Please do not post tabs as comments. Select "correction" instead!