Oops, an error
Loading. Please wait.

Lets Hurt Tonight tab

version 1
version 1

Whole song

2,923 views 42 this week
no commentswrite comment
1 2 3 4 5
x 4
add to favorites
×
Save as Personal and add changes to this tab that will be seen only by you. Learn more ›
×
You can save this tab as Personal to edit and correct it or add notes. All changes will be seen only by you. Learn more »
launch autoscroll
font size
0
reset
how to read this tab
guitar tuner
edit
Autoscroll
slow
fast
+/-
esc
set tempo
stop
Author
Difficulty
[Intro] 
e|---------------------------------------------------------------------------|
B|---------------------------------------------------------------------------|
G|--2--2-2-2-2--2-2-2-2--2-2-2-7--7-7-7-2--2-2-2-2--2-2-2-2--2-2-2-7--7-7-7--|
D|--3--3-3-3-3--3-3-3-3--3-3-3-8--8-8-8-3--3-3-3-3--3-3-3-3--3-3-3-8--8-8-8--|
A|--3--3-3-3-3--3-3-3-3--3-3-3-8--8-8-8-3--3-3-3-3--3-3-3-3--3-3-3-8--8-8-8--|
E|--1--1-1-1-1--1-1-1-1--1-1-1-6--6-6-6-1--1-1-1-1--1-1-1-1--1-1-1-6--6-6-6--|

[Verse 1] 
e|---------------------------------------------------------------------------|
B|---------------------------------------------------------------------------|
G|--2--2-2-2-2--2-2-2-2--2-2-2-7--7-7-7-2--2-2-2-2--2-2-2-2--2-2-2-7--7-7-7--|
D|--3--3-3-3-3--3-3-3-3--3-3-3-8--8-8-8-3--3-3-3-3--3-3-3-3--3-3-3-8--8-8-8--|
A|--3--3-3-3-3--3-3-3-3--3-3-3-8--8-8-8-3--3-3-3-3--3-3-3-3--3-3-3-8--8-8-8--|
E|--1--1-1-1-1--1-1-1-1--1-1-1-6--6-6-6-1--1-1-1-1--1-1-1-1--1-1-1-6--6-6-6--|

e|----------------------------------------------------------------------------------------|
B|------------------------------------------10--10-10-10-10--10-10-10-10--10-10-10-10-----|
G|--2--2-2-2-2--2-2-2-2--2-2-2-9---9--9--9--10--10-10-10-10--10-10-10-10--10-10-10-10--9--|
D|--3--3-3-3-3--3-3-3-3--3-3-3-10--10-10-10-12--12-12-12-12--12-12-12-12--12-12-12-12--10-|
A|--3--3-3-3-3--3-3-3-3--3-3-3-10--10-10-10--------------------------------------------10-|
E|--1--1-1-1-1--1-1-1-1--1-1-1-8---8--8--8---------------------------------------------9--|

e|---------------------------------------------------------------------------|
B|---------------------------------------------------------------------------|
G|--2--2-2-2-2--2-2-2-2--2-2-2-7--7-7-7-2--2-2-2-2--2-2-2-2--2-2-2-7--7-7-7--|
D|--3--3-3-3-3--3-3-3-3--3-3-3-8--8-8-8-3--3-3-3-3--3-3-3-3--3-3-3-8--8-8-8--|
A|--3--3-3-3-3--3-3-3-3--3-3-3-8--8-8-8-3--3-3-3-3--3-3-3-3--3-3-3-8--8-8-8--|
E|--1--1-1-1-1--1-1-1-1--1-1-1-6--6-6-6-1--1-1-1-1--1-1-1-1--1-1-1-6--6-6-6--|

e|----------------------------------------------------------------------------------------|
B|------------------------------------------10--10-10-10-10--10-10-10-10--10-10-10-10-----|
G|--2--2-2-2-2--2-2-2-2--2-2-2-9---9--9--9--10--10-10-10-10--10-10-10-10--10-10-10-10--9--|
D|--3--3-3-3-3--3-3-3-3--3-3-3-10--10-10-10-12--12-12-12-12--12-12-12-12--12-12-12-12--10-|
A|--3--3-3-3-3--3-3-3-3--3-3-3-10--10-10-10--------------------------------------------10-|
E|--1--1-1-1-1--1-1-1-1--1-1-1-8---8--8--8---------------------------------------------8--|

[Pre-Chorus 1] 
e|-------------------------------------------------------------------------------------------|
B|--------------------------------------10--10-10-10-10--10-10-10-10--10-10-10-10--10-10-10--|
G|--7--7-7-7-7--7-7-7-7--7-7-7-7--7-7-7-10--10-10-10-10--10-10-10-10--10-10-10-10--10-10-10--|
D|--8--8-8-8-8--8-8-8-8--8-8-8-8--8-8-8-12--12-12-12-12--12-12-12-12--12-12-12-12--12-12-12--|
A|--8--8-8-8-8--8-8-8-8--8-8-8-8--8-8-8------------------------------------------------------|
E|--6--6-6-6-6--6-6-6-6--6-6-6-6--6-6-6------------------------------------------------------|

e|-----------------------------------------------------------------------|
B|--------------------------------------5--5-5-5-5--5-5-5-5--5-5-5-5-----|
G|--7--7-7-7-7--7-7-7-7--7-7-7-7--7-7-7-5--5-5-5-5--5-5-5-5--5-5-5-5-----|
D|--8--8-8-8-8--8-8-8-8--8-8-8-8--8-8-8-5--5-5-5-5--5-5-5-5--5-5-5-5-----|
A|--8--8-8-8-8--8-8-8-8--8-8-8-8--8-8-8-3--3-3-3-3--3-3-3-3--3-3-3-3-----|
E|--6--6-6-6-6--6-6-6-6--6-6-6-6--6-6-6----------------------------------|

[Chorus 1] 
e|---------------------------------------------------------------------------|
B|--10--10-10-10-10--10-10-10------------------------------------------------|
G|--10--10-10-10-10--10-10-10-7--7-7-7-2--2-2-2-2--2-2-2-2--2-2-2-2--2-2-2---| x3
D|--12--12-12-12-12--12-12-12-8--8-8-8-3--3-3-3-3--3-3-3-3--3-3-3-3--3-3-3---|
A|----------------------------8--8-8-8-3--3-3-3-3--3-3-3-3--3-3-3-3--3-3-3---|
E|----------------------------6--6-6-6-1--1-1-1-1--1-1-1-1--1-1-1-1--1-1-1---|

e|---------------------------------------------------------------------------|
B|--10--10-10-10-10--10-10-10------------------------------------------------|
G|--10--10-10-10-10--10-10-10-7--7-7-7-2--2-2-2-2--2-2-2-2--2-2-2-7--7-7-7---| 
D|--12--12-12-12-12--12-12-12-8--8-8-8-3--3-3-3-3--3-3-3-3--3-3-3-8--8-8-8---|
A|----------------------------8--8-8-8-3--3-3-3-3--3-3-3-3--3-3-3-8--8-8-8---|
E|----------------------------6--6-6-6-1--1-1-1-1--1-1-1-1--1-1-1-6--6-6-6---|

e|---------------------------------------------------------------------------|
B|---------------------------------------------------------------------------|
G|--2--2-2-2-2--2-2-2-2--2-2-2-7--7-7-7-2--2-2-2-2--2-2-2-2--2-2-2-7--7-7-7--|
D|--3--3-3-3-3--3-3-3-3--3-3-3-8--8-8-8-3--3-3-3-3--3-3-3-3--3-3-3-8--8-8-8--|
A|--3--3-3-3-3--3-3-3-3--3-3-3-8--8-8-8-3--3-3-3-3--3-3-3-3--3-3-3-8--8-8-8--|
E|--1--1-1-1-1--1-1-1-1--1-1-1-6--6-6-6-1--1-1-1-1--1-1-1-1--1-1-1-6--6-6-6--|

[Verse 2] 
e|---------------------------------------------------------------------------|
B|---------------------------------------------------------------------------|
G|--2--2-2-2-2--2-2-2-2--2-2-2-7--7-7-7-2--2-2-2-2--2-2-2-2--2-2-2-7--7-7-7--|
D|--3--3-3-3-3--3-3-3-3--3-3-3-8--8-8-8-3--3-3-3-3--3-3-3-3--3-3-3-8--8-8-8--|
A|--3--3-3-3-3--3-3-3-3--3-3-3-8--8-8-8-3--3-3-3-3--3-3-3-3--3-3-3-8--8-8-8--|
E|--1--1-1-1-1--1-1-1-1--1-1-1-6--6-6-6-1--1-1-1-1--1-1-1-1--1-1-1-6--6-6-6--|

e|----------------------------------------------------------------------------------------|
B|------------------------------------------10--10-10-10-10--10-10-10-10--10-10-10-10-----|
G|--2--2-2-2-2--2-2-2-2--2-2-2-9---9--9--9--10--10-10-10-10--10-10-10-10--10-10-10-10--9--|
D|--3--3-3-3-3--3-3-3-3--3-3-3-10--10-10-10-12--12-12-12-12--12-12-12-12--12-12-12-12--10-|
A|--3--3-3-3-3--3-3-3-3--3-3-3-10--10-10-10--------------------------------------------10-|
E|--1--1-1-1-1--1-1-1-1--1-1-1-8---8--8--8---------------------------------------------9--|

[Pre-Chorus 2] 
e|-------------------------------------------------------------------------------------------|
B|--------------------------------------10--10-10-10-10--10-10-10-10--10-10-10-10--10-10-10--|
G|--7--7-7-7-7--7-7-7-7--7-7-7-7--7-7-7-10--10-10-10-10--10-10-10-10--10-10-10-10--10-10-10--|
D|--8--8-8-8-8--8-8-8-8--8-8-8-8--8-8-8-12--12-12-12-12--12-12-12-12--12-12-12-12--12-12-12--|
A|--8--8-8-8-8--8-8-8-8--8-8-8-8--8-8-8------------------------------------------------------|
E|--6--6-6-6-6--6-6-6-6--6-6-6-6--6-6-6------------------------------------------------------|

e|-----------------------------------------------------------------------|
B|--------------------------------------5--5-5-5-5--5-5-5-5--5-5-5-5-----|
G|--7--7-7-7-7--7-7-7-7--7-7-7-7--7-7-7-5--5-5-5-5--5-5-5-5--5-5-5-5-----|
D|--8--8-8-8-8--8-8-8-8--8-8-8-8--8-8-8-5--5-5-5-5--5-5-5-5--5-5-5-5-----|
A|--8--8-8-8-8--8-8-8-8--8-8-8-8--8-8-8-3--3-3-3-3--3-3-3-3--3-3-3-3-----|
E|--6--6-6-6-6--6-6-6-6--6-6-6-6--6-6-6----------------------------------|

[Chorus 2] 
e|---------------------------------------------------------------------------|
B|--10--10-10-10-10--10-10-10------------------------------------------------|
G|--10--10-10-10-10--10-10-10-7--7-7-7-2--2-2-2-2--2-2-2-2--2-2-2-2--2-2-2---| x4
D|--12--12-12-12-12--12-12-12-8--8-8-8-3--3-3-3-3--3-3-3-3--3-3-3-3--3-3-3---|
A|----------------------------8--8-8-8-3--3-3-3-3--3-3-3-3--3-3-3-3--3-3-3---|
E|----------------------------6--6-6-6-1--1-1-1-1--1-1-1-1--1-1-1-1--1-1-1---|

e|-----------------------------------------------------------------|
B|--10--10-10-10-10--10-10-10--------------------------------------|
G|--10--10-10-10-10--10-10-10-7--7-7-7-7--7-7-7-7--7-7-7-7--7-7-7--| 
D|--12--12-12-12-12--12-12-12-8--8-8-8-8--8-8-8-8--8-8-8-8--8-8-8--|
A|----------------------------8--8-8-8-8--8-8-8-8--8-8-8-8--8-8-8--|
E|----------------------------6--6-6-6-6--6-6-6-6--6-6-6-6--6-6-6--|


e|---------------------------------------------------------------------------|
B|---------------------------------------------------------------------------|
G|--2--2-2-2-2--2-2-2-2--2-2-2-7--7-7-7-2--2-2-2-2--2-2-2-2--2-2-2-7--7-7-7--|
D|--3--3-3-3-3--3-3-3-3--3-3-3-8--8-8-8-3--3-3-3-3--3-3-3-3--3-3-3-8--8-8-8--|
A|--3--3-3-3-3--3-3-3-3--3-3-3-8--8-8-8-3--3-3-3-3--3-3-3-3--3-3-3-8--8-8-8--|
E|--1--1-1-1-1--1-1-1-1--1-1-1-6--6-6-6-1--1-1-1-1--1-1-1-1--1-1-1-6--6-6-6--|

e|-------------------------------------------------------------------------------------------|
B|--------------------------------------10--10-10-10-10--10-10-10-10--10-10-10-10--10-10-10--|
G|--2--2-2-2-2--2-2-2-2--2-2-2-7--7-7-7-10--10-10-10-10--10-10-10-10--10-10-10-10--10-10-10--|
D|--3--3-3-3-3--3-3-3-3--3-3-3-8--8-8-8-12--12-12-12-12--12-12-12-12--12-12-12-12--12-12-12--|
A|--3--3-3-3-3--3-3-3-3--3-3-3-8--8-8-8------------------------------------------------------|
E|--1--1-1-1-1--1-1-1-1--1-1-1-6--6-6-6------------------------------------------------------|

[Outro]  
e|---------------------------------------------------------------------------|
B|--10--10-10-10-10--10-10-10------------------------------------------------|
G|--10--10-10-10-10--10-10-10-7--7-7-7-2--2-2-2-2--2-2-2-2--2-2-2-2--2-2-2---| x4
D|--12--12-12-12-12--12-12-12-8--8-8-8-3--3-3-3-3--3-3-3-3--3-3-3-3--3-3-3---|
A|----------------------------8--8-8-8-3--3-3-3-3--3-3-3-3--3-3-3-3--3-3-3---|
E|----------------------------6--6-6-6-1--1-1-1-1--1-1-1-1--1-1-1-1--1-1-1---|

            
            
Suggest correction
Creating personal tab
Creating personal tab
You can edit any tab online and save it as your Personal.

You can edit, replace or remove any tab part or add personal notes – all changes will be seen only by you.

Personal tabs can be accessed anytime from any device, even offline.
Learn more »
comments
print report bad tab
guest
You may want to rate the tab now too:
select rating
Wanna post a correction for this tab? Suggest correction