Oops, an error
Loading. Please wait.

Oh My My Bass

version 1
version 1

Whole song

1,123 views 24 this week
no commentswrite comment
1 2 3 4 5
x 4
add to favorites
launch autoscroll
font size
0
reset
guitar tuner
Autoscroll
slow
fast
+/-
esc
set tempo
stop
Author
[Intro]
 

G|-----7-9---------|----7-9\--------|-------7-9---------|------------------|
D|-----------------|----------------|-------------------|------------------|
A|-----------------|-------------0-2|3---------------3-2|------2--0--0--2--|
E|-0------------0-3|5---------------|-------------------|3--3--------------|

G|-----7-9---------|----7-9\--------|-------7-9---------|------------------|
D|-----------------|----------------|-------------------|------------------|
A|-----------------|-------------0-2|3---------------3-2|------2--0--0--2--|
E|-0------------0-3|5---------------|-------------------|3--3--------------|


[Verse]


G|-----7-9---------|----7-9\--------|-------7-9---------|------------------|
D|-----------------|----------------|-------------------|------------------|
A|-----------------|-------------0-2|3---------------3-2|------2--0--0--2--|
E|-0------------0-3|5---------------|-------------------|3--3--------------|

G|-----7-9---------|----7-9\--------|-------7-9---------|------------------|
D|-----------------|----------------|-------------------|------------------|
A|-----------------|-------------0-2|3---------------3-2|------2--0--0--2--|
E|-0------------0-3|5---------------|-------------------|3--3--------------|

G|-----7-9---------|----7-9\--------|-------7-9---------|------------------|
D|-----------------|----------------|-------------------|------------------|
A|-----------------|-------------0-2|3---------------3-2|------2--0--0--2--|
E|-0------------0-3|5---------------|-------------------|3--3--------------|

G|-----7-9---------|----7-9\--------|-------7-9---------|------------------|
D|-----------------|----------------|-------------------|------------------|
A|-----------------|-------------0-2|3---------------3-2|------2--0--0--2--|
E|-0------------0-3|5---------------|-------------------|3--3--------------|


[Chorus]


G|-----------------|----------------|-------------------|------------------|
D|-----------------|----------------|-------------------|------------------|
A|-----------------|----------------|3------------------|---------0--------|
E|-0---------------|5---------------|-------------------|3-----------------|

G|-----7-9---------|----7-9\--------|-------7-9---------|------------------|
D|-----------------|----------------|-------------------|------------------|
A|-----------------|-------------0-2|3---------------3-2|------2--0--0--2--|
E|-0------------0-3|5---------------|-------------------|3--3--------------|

G|-----7-9---------|----7-9\--------|-------7-9---------|------------------|
D|-----------------|----------------|-------------------|------------------|
A|-----------------|-------------0-2|3---------------3-2|------2--0--0--2--|
E|-0------------0-3|5---------------|-------------------|3--3--------------|

G|-----7-9---------|----7-9\--------|-------7-9---------|------------------|
D|-----------------|----------------|-------------------|------------------|
A|-----------------|-------------0-2|3---------------3-2|------2--0--0--2--|
E|-0------------0-3|5---------------|-------------------|3--3--------------|


[Verse]


G|-----7-9---------|----7-9\--------|-------7-9---------|------------------|
D|-----------------|----------------|-------------------|------------------|
A|-----------------|-------------0-2|3---------------3-2|------2--0--0--2--|
E|-0------------0-3|5---------------|-------------------|3--3--------------|

G|-----7-9---------|----7-9\--------|-------7-9---------|------------------|
D|-----------------|----------------|-------------------|------------------|
A|-----------------|-------------0-2|3---------------3-2|------2--0--0--2--|
E|-0------------0-3|5---------------|-------------------|3--3--------------|

G|-----7-9---------|----7-9\--------|-------7-9---------|------------------|
D|-----------------|----------------|-------------------|------------------|
A|-----------------|-------------0-2|3---------------3-2|------2--0--0--2--|
E|-0------------0-3|5---------------|-------------------|3--3--------------|

G|-----7-9---------|----7-9\--------|-------7-9---------|------------------|
D|-----------------|----------------|-------------------|------------------|
A|-----------------|-------------0-2|3---------------3-2|------2--0--0--2--|
E|-0------------0-3|5---------------|-------------------|3--3--------------|


[Chorus]


G|-----------------|----------------|-------------------|------------------|
D|-----------------|----------------|-------------------|------------------|
A|-----------------|----------------|3------------------|---------0--------|
E|-0---------------|5---------------|-------------------|3-----------------|

G|-----7-9---------|----7-9\--------|-------7-9---------|------------------|
D|-----------------|----------------|-------------------|------------------|
A|-----------------|-------------0-2|3---------------3-2|------2--0--0--2--|
E|-0------------0-3|5---------------|-------------------|3--3--------------|

G|-----7-9---------|----7-9\--------|-------7-9---------|------------------|
D|-----------------|----------------|-------------------|------------------|
A|-----------------|-------------0-2|3---------------3-2|------2--0--0--2--|
E|-0------------0-3|5---------------|-------------------|3--3--------------|

G|-----7-9---------|----7-9\--------|-------7-9---------|------------------|
D|-----------------|----------------|-------------------|------------------|
A|-----------------|-------------0-2|3---------------3-2|------2--0--0--2--|
E|-0------------0-3|5---------------|-------------------|3--3--------------|


[Solo]


G|-----7-9---------|----7-9\--------|-------7-9---------|------------------|
D|-----------------|----------------|-------------------|------------------|
A|-----------------|-------------0-2|3---------------3-2|------2--0--0--2--|
E|-0------------0-3|5---------------|-------------------|3--3--------------|

G|-----7-9---------|----7-9\--------|-------7-9---------|------------------|
D|-----------------|----------------|-------------------|------------------|
A|-----------------|-------------0-2|3---------------3-2|------2--0--0--2--|
E|-0------------0-3|5---------------|-------------------|3--3--------------|


[Outro]


G|-----7-9---------|----7-9\--------|-------7-9---------|------------------|
D|-----------------|----------------|-------------------|------------------|
A|-----------------|-------------0-2|3---------------3-2|------2--0--0--2--|
E|-0------------0-3|5---------------|-------------------|3--3--------------|

G|-----7-9---------|----7-9\--------|-------7-9---------|------------------|
D|-----------------|----------------|-------------------|------------------|
A|-----------------|-------------0-2|3---------------3-2|------2--0--0--2--|
E|-0------------0-3|5---------------|-------------------|3--3--------------|

G|-----7-9---------|----7-9\--------|-------7-9---------|------------------|
D|-----------------|----------------|-------------------|------------------|
A|-----------------|-------------0-2|3---------------3-2|------2--0--0--2--|
E|-0------------0-3|5---------------|-------------------|3--3--------------|

G|-----7-9---------|----7-9\--------|-------7-9---------|------------------|
D|-----------------|----------------|-------------------|------------------|
A|-----------------|-------------0-2|3---------------3-2|------2--0--0--2--|
E|-0------------0-3|5---------------|-------------------|3--3--------------|



************************************

| \   Slide down

************************************
Suggest correction
comments
print report bad tab
guest
You may want to rate the tab now too:
select rating
Wanna post a correction for this tab? Suggest correction