Oops, an error
Loading. Please wait.

Oh My My Bass Tab

version 2
version 2

Whole song

133 views 6 this week
no commentswrite comment
1 2 3 4 5
x 6
add to favorites
launch autoscroll
font size
0
reset
guitar tuner
Autoscroll
slow
fast
+/-
esc
set tempo
stop
Help us to improve Ultimate-Guitar.com Take our survey!
×
Author
Difficulty
novice
                                    /// Oh My My by OneRepublic ///

Tabbed by Izach Prince Paul


[Intro]

G|---------------------------------------------------------------------------|
D|---------------------------------------------------------------------------|
A|----5-7\-------5-7\-------5-7\---------------------------------------------| x2
E|--0-------0-3h5-----3-5-8------7-5-3-3-3h5-5-7-----------------------------|

[Verse 1]

Days are long, life's so short
It's a crazy world, the moment we call life
G|---------------------------------------------------------------------------|
D|---------------------------------------------------------------------------|
A|----5-7\-------5-7\-------5-7\---------------------------------------------| 
E|--0-------0-3h5-----3-5-8------7-5-3-3-3h5-5-7-----------------------------|

Taking off across the sea
Touchdown, city full of lights
G|---------------------------------------------------------------------------|
D|---------------------------------------------------------------------------|
A|----5-7\-------5-7\-------5-7\---------------------------------------------| 
E|--0-------0-3h5-----3-5-8------7-5-3-3-3h5-5-7-----------------------------|

Looked around when there is no one in the room
There's a bar and they call for me and you
G|---------------------------------------------------------------------------|
D|---------------------------------------------------------------------------|
A|----5-7\-------5-7\-------5-7\---------------------------------------------| 
E|--0-------0-3h5-----3-5-8------7-5-3-3-3h5-5-7-----------------------------|

Floating up like there's water underneath
From the desert to the shining sea
G|---------------------------------------------------------------------------|
D|---------------------------------------------------------------------------|
A|----5-7\-------5-7\-------5-7\-----------------7---------------------------| 
E|--0-------0-3h5-----3-5-8------7-5-3-3-3h5-5-7-----------------------------|

[Chorus 1]

Look around, you're just what I wanted (Just what I wanted)
Just what I wanted (Just what I wanted)
Just what I wanted, I'm alright
G|---------------------------------------------------------------------------|
D|---------------------------------------------------------------------------|
A|----5-7\-------5-7\-------5-7\---------------------------------------------| 
E|--0-------0-3h5-----3-5-8------7-5-3-3-3h5-5-7-----------------------------|

I'm alright (Just what I wanted, just what I wanted, you're just what I wanted)
Oh my, my (Just what I wanted, just what I wanted, you're just what I wanted)
I'm alright, I'm alright
G|---------------------------------------------------------------------------|
D|---------------------------------------------------------------------------|
A|----5-7\-------5-7\-------5-7\---------------------------------------------| 
E|--0-------0-3h5-----3-5-8------7-5-3-3-3h5-5-7-----------------------------|

[Verse 2]

Days are long, life's so short
It's a crazy world when we meet, we try
G|---------------------------------------------------------------------------|
D|---------------------------------------------------------------------------|
A|----5-7\-------5-7\-------5-7\---------------------------------------------| 
E|--0-------0-3h5-----3-5-8------7-5-3-3-3h5-5-7-----------------------------|

Taking across the sea
Touchdown, festivals, night
G|---------------------------------------------------------------------------|
D|---------------------------------------------------------------------------|
A|----5-7\-------5-7\-------5-7\---------------------------------------------| 
E|--0-------0-3h5-----3-5-8------7-5-3-3-3h5-5-7-----------------------------|

Looked around at the faces in the room
People shouting, they're saying parlez-vous
G|---------------------------------------------------------------------------|
D|---------------------------------------------------------------------------|
A|----5-7\-------5-7\-------5-7\---------------------------------------------| 
E|--0-------0-3h5-----3-5-8------7-5-3-3-3h5-5-7-----------------------------|

Floating up like there's water underneath
I'm the desert, you're the shining sea
G|---------------------------------------------------------------------------|
D|---------------------------------------------------------------------------|
A|----5-7\-------5-7\-------5-7\-----------------7---------------------------| 
E|--0-------0-3h5-----3-5-8------7-5-3-3-3h5-5-7-----------------------------|

[Chorus 2]

Look around, you're just what I wanted (Just what I wanted)
Just what I wanted (Just what I wanted)
Just what I wanted, I'm alright
G|---------------------------------------------------------------------------|
D|---------------------------------------------------------------------------|
A|----5-7\-------5-7\-------5-7\---------------------------------------------| 
E|--0-------0-3h5-----3-5-8------7-5-3-3-3h5-5-7-----------------------------|

I'm alright (Just what I wanted, just what I wanted, you're just what I wanted)
Oh my, my (Just what I wanted, just what I wanted, you're just what I wanted)
I'm alright, I'm alright
G|---------------------------------------------------------------------------|
D|---------------------------------------------------------------------------|
A|----5-7\-------5-7\-------5-7\---------------------------------------------| 
E|--0-------0-3h5-----3-5-8------7-5-3-3-3h5-5-7-----------------------------|

[Interlude]
G|---------------------------------------------------------------------------|
D|---------------------------------------------------------------------------|
A|----5-7\-------5-7\-------5-7\---------------------------------------------| x2
E|--0-------0-3h5-----3-5-8------7-5-3-3-3h5-5-7-----------------------------|

[Bridge]

All that I've seen (All the things that I have seen)
You are (I swear that you are) you are
G|---------------------------------------------------------------------------|
D|---------------------------------------------------------------------------|
A|----5-7\-------5-7\-------5-7\---------------------------------------------| 
E|--0-------0-3h5-----3-5-8------7-5-3-3-3h5-5-7-----------------------------|

[Chorus 3]
Just what I wanted (come on, come on)
You're just what I wanted
All my life I found you
G|---------------------------------------------------------------------------|
D|---------------------------------------------------------------------------|
A|----5-7\-------5-7\-------5-7\---------------------------------------------| 
E|--0-------0-3h5-----3-5-8------7-5-3-3-3h5-5-7-----------------------------|

You're just what I wanted (You are)Just what I wanted
All my life
G|---------------------------------------------------------------------------|
D|---------------------------------------------------------------------------|
A|----5-7\-------5-7\-------5-7\---------------------------------------------| 
E|--0-------0-3h5-----3-5-8------7-5-3-3-3h5-5-7-----------------------------|

Look around you (Oh, oh, come on)
Oh my, my (yeah)
G|---------------------------------------------------------------------------|
D|---------------------------------------------------------------------------|
A|----5-7\-------5-7\-------5-7\---------------------------------------------| 
E|--0-------0-3h5-----3-5-8------7-5-3-3-3h5-5-7-----------------------------|

[Outro]

Just what I wanted (Just what I wanted)
Just what I wanted (Just what I wanted)
You're just what I wanted all my life
Oh my, my
G|---------------------------------------------------------------------------|
D|---------------------------------------------------------------------------|
A|----5-7\-------5-7\-------5-7\---------------------------------------------| 
E|--0-------0-3h5-----3-5-8------7-5-3-3-3h5-5-7-----------------------------|



************************************

| h   Hammer-on
| \   Slide down

************************************
Suggest correction
comments
print report bad tab
guest
You may want to rate the tab now too:
select rating
Wanna post a correction for this tab? Suggest correction