Oops, an error
Loading. Please wait.

Someone To Save You intro tab

2,569 views 3 this week
4 commentsread comments
1 2 3 4 5
x 3
add to favorites
×
Save as Personal and add changes to this tab that will be seen only by you. Learn more ›
×
You can save this tab as Personal to edit and correct it or add notes. All changes will be seen only by you. Learn more »
launch autoscroll
font size
0
reset
how to read this tab
guitar tuner
edit
Autoscroll
slow
fast
+/-
esc
set tempo
stop
 Intro:

 |-----------------------------------------------------|
 |------10-9-7-------10-9-7-------10-9-7------5-7-9----|
 |--9-9--------9-7-7--------7-6-6---------6-5-------9--|
 |-----------------------------------------------------|
 |-----------------------------------------------------|
 |-----------------------------------------------------|

That's All,
Enjoy  . .

            
            
Suggest correction
Creating personal tab
Creating personal tab
You can edit any tab online and save it as your Personal.

You can edit, replace or remove any tab part or add personal notes – all changes will be seen only by you.

Personal tabs can be accessed anytime from any device, even offline.
Learn more »
Give kudos to tab author, rate the tab!
1 2 3 4 5
comments
print report bad tab
4 comments total. Showing first comments.
+1 reply
GlobalGibson 10 Apr 01, 2008 03:15 PM

Great Tab, but it has only the intro . .
try to tab the whole song ! ;>
5 stars for sure . .

+1 reply
PagudpudRocker 154 Apr 02, 2008 03:24 AM

thanks for the rating and thanks for the comment!:->>
ill try to tab the whole if I have to . .
maybe it will just take some time . . .

0 reply
Simon89 31 Apr 03, 2008 06:22 AM

-----------------------------------------------------|
------10-9-7-------10-9-7------10-9-7-----5-7-9-----|
--9-9--------9-7-7-------7-6-6-------6-5--------9---|
----------------------------------------------------|
----------------------------------------------------|
----------------------------------------------------|

guest
You may want to rate the tab now too:
select rating
Wanna post a correction for this tab? Suggest correction