Oops, an error
Loading. Please wait.

Something I Need Ukulele Chords

4,983 views 9 this week
no commentswrite comment
1 2 3 4 5
accurate
x 3
add to favorites
launch autoscroll
font size
0
reset
transpose
0
reset
display chords
guitar tuner
Tab Pro tools
  • play this tab
  • loop segment
  • change instrument
  • show fretboard
  • metronome
×
Best way to learn
"Something I Need"
Autoscroll
slow
fast
+/-
esc
set tempo
stop
Difficulty
intermediate
-------------------------------------------------------------------------------
                             Something I Need - OneRepublic
-------------------------------------------------------------------------------
Tabbed by: cajoan

Tuning: Standard

  F                                Am
e|---------------------------------------------------------------------------|
B|---------------------------------------------------------------------------|
G|-0-0-0-0-0-0-0-0-0-0-0-0-0-0-0-0-0-0-0-0-0-0-0-0-0-0-0-0-0-0-0-0-----------|
D|---------------------------------------------------------------------------|
A|---------------------------------------------------------------------------|
E|-3---------------3---------------0---------------0-------------------------|


  F                                G
e|---------------------------------------------------------------------------|
B|---------------------------------------------------------------------------|
G|-0-0-0-0-0-0-0-0-0-0-0-0-0-0-0-0-0-0-0-0-0-0-0-0-0-0-0-0-0-0-0-0-----------|
D|---------------------------------0---------------0-------------------------|
A|-3---------------3---------------------------------------------------------|
E|---------------------------------------------------------------------------|
  F                                G


                         F
I had a dream the other night
                         Am
Bout how we only get one night
                         F
Woke me up right after 2
                         G
Stayed awake and stared at you
                         F
So I wouldn’t loose my mind
                              F
And I had the week that came from hell
                              Am
And yes I know that you could tell
                                  F
But you’re like the net under the ledge
                           G
Whether I go flying off the edge
                   F
You go flying off aswell
            Am
And if you only die once
G
I wanna die with 

[Chorus]
F
You got something I need
        Am
In this world full of people, there’s one killing me
            F            G                  F
And if we only die once, I wanna die with you
F
You got something I need
        Am
In this world full of people, there’s one killing me
            F            G                  F
And if we only die once, I wanna die with you

F                     
Last night I think I drank too much, yeah
                      Am
Call it our temporary crunch
                               F
With broken words I’ve tried to say
                   G
Honey don’t you be afraid
                          F
If we got nothing, we got us, yeah
           Am
And if you only die once
G
I wanna die with 

[Chorus]
F
You got something I need
        Am
In this world full of people, there’s one killing me
            F            G                  F
And if we only die once, I wanna die with you
F
You got something I need
        Am
In this world full of people, there’s one killing me
            F            G                  F
And if we only die once, I wanna die with you

F                              Am
I know that we’re not the same
But I’m so damn glad that we made it
    F           G         F
To this time, this time, around, yeah

[Chorus]
F
You got something I need
         Am
In this world full of people, there’s one killing me
           F             G                 F
And if we only die once, I wanna die with you
F
You got something I need
        Am
In this world full of people, there’s one killing me
           F             G                 F
And if we only die once, I wanna die with you
        F            G
If we only die once, I wanna die with
        F             G                  F
If we only live once, I wanna live with you
comments
We did not receive enough feedback on this tab! Please rate:
print report bad tab
1 2 3 4 5
I want to post or [tab]
guest
You may want to rate the tab now too:
select rating
Please do not post tabs as comments. Select "correction" instead!