Oops, an error
Loading. Please wait.

Soak Tab

272 views 1 this week
no commentswrite comment
1 2 3 4 5
2 more votes to show rating
add to favorites
×
Save as Personal and add changes to this tab that will be seen only by you. Learn more ›
×
You can save this tab as Personal to edit and correct it or add notes. All changes will be seen only by you. Learn more »
save as personal
new!
launch autoscroll
font size
0
reset
how to read this tab
guitar tuner
Autoscroll
slow
fast
+/-
esc
set tempo
stop
Artist- Onesidezero
Song- Soak
Tabber- Iconoclast

Verse- Guitar 1(for best effect play close to the bridge)
e|--------------------------------------------------------|
b|--------------------------------------------------------|
g|--------------------------------------------------------|
d|--------------------------------------------------------|
a|--------------------------------------------------------|
D|-9-9-9-9-9-9-9-0-0-0-0-0-0-0-5-5-5-5-5-5-5-4-2-0--------|

Verse- Guitar 2
e|-----------------------------------------------|
b|---8-7-----------------8-7---5---5-------------|
g|-4-----7-7-7-7-7-7-7-4-----6---6---------------|
d|-----------------------------------*4-*4-*4-*4-|
a|-----------------------------------------------|
D|-----------------------------------------------|
           pm---------

Chorus
e|---------------------------------------------------|
b|---------------------------------------------------|
g|---------------------------------------------------|
d|-11-11-11-11-11-0-0-0-0-7-7-7-7-7-9-9-9-9----------|
a|--9--9--9--9--9-0-0-0-0-5-5-5-5-5-0-0-0-0----------|
D|--9--9--9--9--9-0-0-0-0-5-5-5-5-5-0-0-0-0----------|

Bridge- Guitar 1
e|---------------------------------|
b|---------------------------------|
g|-7-9-7----9-7-9-7----7-7---------|
d|-------10---------10-----10-9-7--|
a|---------------------------------|
D|---------------------------------|

Bridge- Guitar 2
e|---------------------------------|
b|---------------------------------|
g|---------------------------------|
d|-7-9-7----9----------------------|
a|-------10---9-10-9-7-10-10-9-10--|
D|---------------------------------|

At the end of bridge, play this
e|---------------------------------|
b|---------------------------------|
g|---------------------------------|
d|---------------------------------|
a|---------------------------------|
D|-9-9-9-9-9-9-9-9-9-9-9-9-9-9-----|

Theres a solo in the last chorus that goes...
e|---------------------------------|
b|---------------------------------|
g|-s11-----------------------------|
d|-----11-12-14-12-12-11-9-7-9-----|
a|---------------------------------|
D|---------------------------------|

e|---------------------------------------|
b|---------------------------------------|
g|-s11-----------------------------------|
d|-----11-12-14-12-11-11-12p11-9-7-9-7---|
a|---------------------------------------|
D|---------------------------------------|

e|---------------------------------------|
b|---------------------------------------|
g|-s11-------------------14-------14-----|
d|-----11-12-14-12-12-12----12-12----12--|
a|---------------------------------------|
D|---------------------------------------|

e|---------------------------------------|
b|---------------------------------------|
g|-s11-----------------------------------|
d|-----11-12-14-12-11-7------------------|
a|---------------------9-7-5-4-----------|
D|---------------------------------------|
Suggest correction
Give kudos to tab author, rate the tab!
1 2 3 4 5
comments
print report bad tab
guest
Wanna post a correction for this tab? Suggest correction