Oops, an error
Loading. Please wait.

Prone Mortal Form Tab

1,014 views 1 this week
no commentswrite comment
1 2 3 4 5
please rate
add to favorites
launch autoscroll
font size
0
reset
how to read this tab
guitar tuner
Autoscroll
slow
fast
+/-
esc
set tempo
stop
Help us to improve Ultimate-Guitar.com Take our survey!
×
Author
Difficulty
Tuning
intermediate
C# G# C# F# A# D#
-------------------------------------------------------------------------------
                    PRONE MORTAL FORM - Only Living Witness                   
-------------------------------------------------------------------------------

Tabbed by Jacob LeValley (May 2012)




Tuning: Drop C#/Db - (C# G# C# F# A# D#)




Riff A1

D#|---------------------------------------------------------------------------|
A#|---------------------------------------------------------------------------|
F#|---------------------------------------------------------------------------|
C#|-----------5--7--8\7---------5--7--10\8---------5-7------5-5---------------|
G#|--0--0-0-0-3--5--6\5-0-0-0-0-3--5---8\6-0-0-0-0-3-5-3-5--3-3-------3h5-3h5-|
C#|--0--0-0-0-----------0-0-0-0------------0-0-0-0-----3-5--------5h7---------|
        . . .           . . . .            . . . .



Riff A2

D#|---------------------------------------------------------------------------|
A#|---------------------------------------------------------------------------|
F#|---------------------------------------------------------------------------|
C#|----------5--7--8-7---------5-7-10-8---------5-7------5-5------------------|
G#|--0-0-0-0-3--5--6-5-0-0-0-0-3-5--8-6-0-0-0-0-3-5-3-5--3-3-------3h5-3h5----|
C#|--0-0-0-0-----------0-0-0-0----------0-0-0-0-----3-5--------5h7------------|
     . . . .           . . . .          . . . .



Riff B1

D#|---------------------------------------------------------------------------|
A#|---------------------------------------------------------------------------|
F#|--------------------------------8(~)---------------------------------------|
C#|------8---8-7-5-7\---8---8-7-10-x-----8---8-7-5----5-5---------------------|
G#|------6---6-5-3-5\---6---6-5--8-6(~)--6---6-5-3-5--3-3-------3h5-3h5-------|
C#|--0-0---0----------0---0------------0---0-------5--------5h7---------------|
     . .   .          .   .            .   .  



Riff B2

D#|---------------------------------------------------------------------------|
A#|---------------------------------------------------------------------------|
F#|---------------------------------------------------------------------------|
C#|------8---8-7-5-7\---8---8-7-10-8-----8---8-7-5----5-5---------------------|
G#|------6---6-5-3-5\---6---6-5--8-6-----6---6-5-3-5--3-3-------3h5-3h5-------|
C#|--0-0---0----------0---0----------0-0---0-------5--------5h7---------------|
     . .   .          .   .          . .   .



Riff C

D#|---------------------------------------------------------------------------|
A#|---------------------------------------------------------------------------|
F#|---------------------------------------------------------------------------|
C#|---------------------------------------------------------------------------|
G#|--0-0-0-0-0-0-0-0-0-0-3--3--3-3-0-----0-0-0-0-0-0-0-0-0-0-3--4--5-6-0------|
C#|--0-0-0-0-0-0-0-0-0-0-3--3--3-3-0-----0-0-0-0-0-0-0-0-0-0-3--4--5-6-0------|
     . . . . . .                         . . . . . .


D#|---------------------------------------------------------------------------|
A#|---------------------------------------------------------------------------|
F#|---------------------------------------------------------------------------|
C#|--------------------------------------0-0-0-0-0-0-0-0-0-0------------------|
G#|--0-0-0-0-0-0-0-0-0-0-3--3--3-3-0-----0-0-0-0-0-0-0-0-0-0-3--4--5-6-0------|
C#|--0-0-0-0-0-0-0-0-0-0-3--3--3-3-0-----0-0-0-0-0-0-0-0-0-0-3--4--5-6-0------|
     . . . . . .



Riff D

D#|---------------------------------------------------------------------------|
A#|---------------------------------------------------------------------------|
F#|---------------------------------------------------------------------------|
C#|---------------------------------------------------------------------------|
G#|--0-0-3--3--3-3-0--0-0-3--4--5-6-0--0-0-3--3--3-3-0--0-0-3--4--5-6-0-------|
C#|--0-0-3--3--3-3-0--0-0-3--4--5-6-0--0-0-3--3--3-3-0--0-0-3--4--5-6-0-------|
     . .              . .              . .              . .


D#|---------------------------------------------------------------------------|
A#|---------------------------------------------------------------------------|
F#|---------------------------------------------------------------------------|
C#|---------------------------------------------------------------------------|
G#|--0-0-3--3--3-3-0--0-0-3--4--5-6\5-3---------------------------------------|
C#|--0-0-3--3--3-3-0--0-0-3--4--5-6\5-3---------------------------------------|
     . .              . .



Riff E

D#|---------------------------------------------------------------------------|
A#|---------------------------------------------------------------------------|
F#|---------------------------------------------------------------------------|
C#|----------------------7-7-7-7-7-7------------------------------------------|
G#|--3-3-3-3-3-3-3-3/5-5-5-5-5-5-5-5------------------------------------------|
C#|--3-3-3-3-3-3-3-3/5-5-5-5-5-5-5-5------------------------------------------|
     . . . . . .



Riff F

D#|---------------------------------------------------------------------------|
A#|---------------------------------------------------------------------------|
F#|---------------------------------------------------------------------------|
C#|---------------------------------------------------------------------------|
G#|--0-3-0--0-0-0-0-0-0-0-----------------------------------------------------|
C#|--0-3-0--0-0-0-0-0-0-0-----------------------------------------------------|
            . . . . . . .



Riff G1

D#|
A#|---------------------------------------------------------------------------|
F#|---------------------------------------------------------------------------|
C#|----------------------0----------------------------------------------------|
G#|--3-3-0-3-0-3-5-6\3p0-0----------------------------------------------------|
C#|--3-3-0-3-0-3-5-6\3p0-0----------------------------------------------------|




Riff G2

D#|-------------------------------|-------------------------------------------|
A#|-------------------------------|-------------------------------------------|
F#|-------------------------------|-------------------------------------------|
C#|-----------------------0-------|-------------------------------------------|
G#|--3-3-xx-3--3--3-6-5-3-0-------|-------------------------------------------|
C#|--3-3-xx-3--3--3-6-5-3-0-------|--0-0--------------------------------------|
            .  .                     . .



Riff C2 (ending variation)    

D#|---------------------------------------------------------------------------|
A#|---------------------------------------------------------------------------|
F#|---------------------------------------------------------------------------|
C#|--0-0-0-0-0-0-0-0-0-0------------------------------------------------------|
G#|--0-0-0-0-0-0-0-0-0-0-3--4--5--6---0---0----0----0-------------------------|
C#|--0-0-0-0-0-0-0-0-0-0-3--4--5--6---0---0----0----0-------------------------|
                                          .    .





************************************

| .   palm mute
| /   slide up
| \   slide down
| h   hammer-on
| p   pull-off
| ~   vibrato
| +   harmonic
| x   Mute note
| b   Bend
| pb  Pre-bend
| br  Bend release
| pbr Pre-bend release
| brb Bend release bend

************************************



Only Living Witness official website: http://www.myspace.com/olw
Suggest correction new What's this?
You can suggest a correction to this tab. Community and Mods will review your correction and vote to approve or reject it.
comments
We did not receive enough feedback on this tab! Please rate:
print report bad tab
1 2 3 4 5
guest
You may want to rate the tab now too:
select rating
Please do not post tabs as comments. Select "correction" instead!