Oops, an error
Loading. Please wait.

Either Hes Dead Or My Watch Has Stopped Chords

22 views 3 this week
no commentswrite comment
1 2 3 4 5
1 last vote to show rating
add to favorites
launch autoscroll
font size
0
reset
transpose
0
reset
display chords
guitar tuner
Autoscroll
slow
fast
+/-
esc
set tempo
stop
Help us to improve Ultimate-Guitar.com Take our survey!
×
Author
Difficulty
Tuning
novice
D# G# C# F# A# D#
[Intro]
e|-----------------------------------------|
B|-----------------------------------------|
G|--2-2-2-2-2-2-1-1-2-2-2-2-2-2-6-6--------|
D|-4-4-4-4-4-4-2-2-0-0-0-0-0-0-7-7---------|
A|-----------------------------------------|
E|-----------------------------------------|

e|-----------------------------------------|
B|-----------------------------------------|
G|--2-2-2-2-2-2-1-1-2-2-2-2-2-2--6---------|
D|-4-4-4-4-4-4-2-2-0-0-0-0-0-0-------------|
A|-----------------------------------------|
E|-----------------------------------------|


[Verse]
        F#m        E            A         D
We have nothing to lose but our chains, I feel,
   F#m              E                    A                 D
an endless train of cash boxes and heavy purses wrought in steel. 
     F#m          E                  A              D
Like Jacob Marley dragging his I'm a weary captive, bound. 
     F#m         E                      A            D
Mine tie me to a student loan and every rare LP I've ever found. 
          E                            F#m
I'm just another naive prole, with revolution of the mind, 
        Fm                                  D
but I'd fight a line of riot police if it'd help to clear the sky. 


[Chorus]
A                      E                          Bm
I'm not looking for an answer, to some big scary question. 
                  D              A
A missing link to clarify it all. 
                          E
We take each second as it comes 
                            Bm
and every now and then some light shines down on us. 
            D
Enjoy those moments in the sun. 


[Verse]

e|-----------------------------------------|
B|-----------------------------------------|
G|--2-2-2-2-2-2-1-1-2-2-2-2-2-2--6---------|
D|-4-4-4-4-4-4-2-2-0-0-0-0-0-0-------------|
A|-----------------------------------------|
E|-----------------------------------------|
        F#m           E               A       D
We know Marley died a rich but lonely man and yet, 
       F#m         E              A              D
it's a very simple lesson we keep learning to forget, 
      F#m      E          A          D
a Dickensian analogy spun out into a song, 
     F#m        E                  A            D
Melancholia and Marxism, this must be where I belong. 
         E
I'm just another lonesome fool, 
         F#m
with revolution on the brain, 
        Fm                          D
but I'd bomb the royal bank if it'd blow the clouds away. 


[Chorus]
A                      E                          Bm
I'm not looking for an answer, to some big scary question. 
                  D              A
A missing link to clarify it all. 
                          E
We take each second as it comes 
                            Bm
and every now and then some light shines down on us. 
            D
Enjoy those moments in the sun. 


[Bridge]
F#m E A D x2

D
I built a shield to block the sky, 
D
swathed in shade I shut my eyes, 
D                                        F#m
I wish that I had tried to take my own advice. 
Fm   A                      D
Look up and let yourself be blinded 
D                                        F#m
I wish that I had tried to take my own advice. 
Fm   A                      D
Look up and let yourself be blinded
D                                        F#m
I wish that I had tried to take my own advice. 
Fm   A                      D
Look up and let yourself be blinded
D                                        F#m
I wish that I had tried to take my own advice. 


[Outro]

e|-----------------------------------------|
B|-----------------------------------------|
G|--2-2-2-2-2-2-1-1-2-2-2-2-2-2-6-6--------|
D|-4-4-4-4-4-4-2-2-0-0-0-0-0-0-7-7---------|
A|-----------------------------------------|
E|-----------------------------------------|

e|-----------------------------------------|
B|-----------------------------------------|
G|--2-2-2-2-2-2-1-1-2-2-2-2-2-2--6---------|
D|-4-4-4-4-4-4-2-2-0-0-0-0-0-0-------------|
A|-----------------------------------------|
E|-----------------------------------------|
Suggest correction
Give kudos to tab author, rate the tab!
1 2 3 4 5
comments
print report bad tab
guest
You may want to rate the tab now too:
select rating
Wanna post a correction for this tab? Suggest correction