Oops, an error
Loading. Please wait.

Artificial Life Tab

version 1
version 1

Whole song

  • Guitar tab version of Artificial Life.

Interactive

28 views 1 this week
no commentswrite comment
1 2 3 4 5
3 more votes to show rating
add to favorites
launch autoscroll
font size
0
reset
how to read this tab
guitar tuner
Autoscroll
slow
fast
+/-
esc
set tempo
stop
Help us to improve Ultimate-Guitar.com Take our survey!
×
Author
Difficulty
novice
About this tab version
Guitar tab version of Artificial Life. Was this info helpful? Yes No
[Intro]

e|-5~~-----3~~-----|-----------------|
B|-5~~-----3~~-----|-----------------|
G|-6~~-----4~~-----|-----------------|
D|-7~~-----5~~-----|-----------------|
A|-7~~-----5~~-----|-----------------|
E|-5~~-----3~~-----|-----------------|

e|-5~~-----3~~-----|-----------------|
B|-5~~-----3~~-----|-----------------|
G|-6~~-----4~~-----|-----------------|
D|-7~~-----5~~-----|-----------------|
A|-7~~-----5~~-----|-----------------|
E|-5~~-----3~~-----|-----------------|

e|-5~~-----3~~-----|-5~~-----5~~-----|
B|-5~~-----3~~-----|-7~~-----5~~-----|
G|-6~~-----4~~-----|-7~~-----6~~-----|
D|-7~~-----5~~-----|-7~~-----7~~-----|
A|-7~~-----5~~-----|-5~~-----7~~-----|
E|-5~~-----3~~-----|-5~~-----5~~-----|

e|-5---5---3---3---|-5---5---5---5---|
B|-5---5---3---3---|-7---7---5---5---|
G|-6---6---4---4---|-7---7---6---6---|
D|-7---7---5---5---|-7---7---7---7---|
A|-7---7---5---5---|-5---5---7---7---|
E|-5---5---3---3---|-5---5---5---5---|


[Verse]

e|-x-5-x-5-x-3-x-3-|-x-5-x-5-x-5-x-5-|
B|-x-5-x-5-x-3-x-3-|-x-7-x-7-x-5-x-5-|
G|-x-6-x-6-x-4-x-4-|-x-7-x-7-x-6-x-6-|
D|-x-7-x-7-x-5-x-5-|-x-7-x-7-x-7-x-7-|
A|-----------------|-----------------|
E|-----------------|-----------------|(x3)

e|-x-5-x-5-x-3-x-3-|-x-5-x-5-5-5-5-5-|
B|-x-5-x-5-x-3-x-3-|-x-7-x-7-5-5-5-5-|
G|-x-6-x-6-x-4-x-4-|-x-7-x-7-6-6-6-6-|
D|-x-7-x-7-x-5-x-5-|-x-7-x-7-7-7-7-7-|
A|-----------------|-----------------|
E|-----------------|-----------------|

Chorus/Coda/Outro:
e|-x-5-x-5-x-5-x-5-|-x-3-x-3-x-3-3-3-|
B|-x-5-x-5-x-5-x-5-|-x-3-x-3-x-3-3-3-|
G|-x-6-x-6-x-6-x-6-|-x-4-x-4-x-4-4-4-|
D|-x-7-x-7-x-7-x-7-|-x-5-x-5-x-5-5-5-|
A|-----------------|-----------------|
E|-----------------|-----------------|

e|-x-5-x-5-x-5-x-5-|-x-5-x-5-x-5-5-5-|
B|-x-7-x-7-x-7-x-7-|-x-5-x-5-x-5-5-5-|
G|-x-7-x-7-x-7-x-7-|-x-6-x-6-x-6-6-6-|
D|-x-7-x-7-x-7-x-7-|-x-7-x-7-x-7-7-7-|
A|-----------------|-----------------|
E|-----------------|-----------------|(x2)


[Solo]

e|-----------------------------------|
B|-10------10--10--8---8---8----/----|
G|-----------------------------------|
D|-----------------------------------|
A|-----------------------------------|
E|-----------------------------------|


e|-----------------------------------|
B|-15--15--15------10------10---10---|
G|-----------------------------------|
D|-----------------------------------|
A|-----------------------------------|
E|-----------------------------------|(x2)


[Bridge 1]

e|-5~~-------------|-----------------|
B|-5~~-------------|-----------------|
G|-6~~-------------|-----------------|
D|-7~~-------------|-----------------|
A|-7~~-------------|-----------------|
E|-5~~-------------|-----------------|

e|-----------------|-----------------|
B|-----------------|-----------------|
G|-----------------|-----------------|
D|-----------------|-----------------|
A|-----------------|-----------------|
E|-----------------|-----------------|

e|-----------------|-----------------|
B|-----------------|-----------------|
G|-2~~~~~~~~~~-2~~-|-2-0~~~~~~~~-0~~-|
D|-----------------|-----------------|
A|-----------------|-----------------|
E|-----------------|-----------------|

e|-----------------|-----------------|
B|-----------------|-----------------|
G|-0-7-7~~~~~~-2~~-|-----------------|
D|-----------------|-2~~~~~~~~~~~~~~-|
A|-----------------|-----------------|
E|-----------------|-----------------|


[Bridge 2]

e|-5~~-------------|-3~~-------------|
B|-5~~-------------|-3~~-------------|
G|-6~~-------------|-4~~-------------|
D|-7~~-------------|-5~~-------------|
A|-7~~-------------|-5~~-------------|
E|-5~~-------------|-3~~-------------|

e|-5~~-------------|-5~~-------------|
B|-7~~-------------|-5~~-------------|
G|-7~~-------------|-6~~-------------|
D|-7~~-------------|-7~~-------------|
A|-5~~-------------|-7~~-------------|
E|-5~~-------------|-5~~-------------|

e|-5~~-------------|-3~~-------------|
B|-5~~-------------|-3~~-------------|
G|-6~~-------------|-4~~-------------|
D|-7~~-------------|-5~~-------------|
A|-7~~-------------|-5~~-------------|
E|-5~~-------------|-3~~-------------|

e|-5~~-------------|-5---5---5-5-5-5-|
B|-7~~-------------|-5---5---5-5-5-5-|
G|-7~~-------------|-6---6---6-6-6-6-|
D|-7~~-------------|-7---7---7-7-7-7-|
A|-5~~-------------|-----------------|
E|-5~~-------------|-----------------|


[Bridge 3]

e|-----------------|-----------------|
B|-----------------|-----------------|
G|-6~~~~~~~~~~-6~~-|-6-7~~~~~~~~-7~~-|
D|-----------------|-----------------|
A|-----------------|-----------------|
E|-----------------|-----------------|

e|-----------------|-----------------|
B|-----------------|-----------------|
G|-7~~~~~~~~~~-7~~-|-6~~~~~~~~~~~~~~-|
D|-----------------|-----------------|
A|-----------------|-----------------|
E|-----------------|-----------------|

e|-----------------|-----------------|
B|-----------------|-----------------|
G|-2~~~~~~~~~~~~~~-|-2-0~~~~~~~~-0~~-|
D|-----------------|-----------------|
A|-----------------|-----------------|
E|-----------------|-----------------|

e|---2~~~~~~~~~~~~-|-----------------|
B|-----------------|-----------------|
G|-2---------------|-2~~~~~~~~~~~~~~-|
D|-----------------|-----------------|
A|-----------------|-----------------|
E|-----------------|-----------------|


************************************

| x  Dead note
| /  Slide up
| ~  Vibrato

************************************
Suggest correction
Give kudos to tab author, rate the tab!
1 2 3 4 5
comments
print report bad tab
guest
You may want to rate the tab now too:
select rating
Wanna post a correction for this tab? Suggest correction