Oops, an error
Loading. Please wait.

Artificial Life Bass Tab

version 2
version 2

Whole song

  • Previous version was incomplete and some parts were wrong.

Interactive

37 views 1 this week
no commentswrite comment
1 2 3 4 5
3 more votes to show rating
add to favorites
launch autoscroll
font size
0
reset
guitar tuner
Autoscroll
slow
fast
+/-
esc
set tempo
stop
Help us to improve Ultimate-Guitar.com Take our survey!
×
Author
Difficulty
novice
About this tab version
Previous version was incomplete and some parts were wrong. Was this info helpful? Yes No
Intro:
G|-----------------|-----------------|
D|-----------------|-----------------|
A|-----4-------2---|-5-4-2-2-----4---|
E|-5-------3-------|---------5-------|

G|-----------------|-----------4---5-|
D|-----------------|-----------------|
A|-----4-------2---|-5-4-2-2-2---3---|
E|-5-------3-------|-----------------|

G|-----------------|-----------------|
D|-----------------|-----------------|
A|-----4-------2---|-5-4-2-2-----4---|
E|-5-------3-------|---------5-------|

G|-----------------|-----------------|
D|-----------------|-----------------|
A|-----------------|-5---5---0---0---|
E|-5---5---3---3---|-----------------|

Verse:
G|-----------------|-----------------|
D|-----------------|-----------------|
A|-----4-------2---|-5-4-2-2-----4---|
E|-5-------3-------|---------5-------| ×4

Chorus                                 _
G|-----------------|-----------5---7-|  |
D|-----2-2-2---2---|-----------------|  |
A|-----------------|-----2-2-3---5---|  |
E|-3---------------|-3-3-------------|  |
                                        |--×2
G|-----------------|---2---2-----2---|  |
D|---------------5-|-5---------5-----|  |
A|-5---5-5-5---5---|-----------------|  |
E|-----------------|-----------------| _|

Bridge:
G|-----------------|-----------------|
D|-----------------|-----------------|
A|-3---------------|---------------4-|
E|---5-5---3-----5-|-3-3-3-3-3-3-3---|

G|-----------------|-----------------|
D|-----------------|-----------------|
A|-5-5-5-5-5-5-5-3-|-------3---0-3---|
E|-----------------|-5-5-5-----------|

G|-----------------|-----------------|
D|-----------------|-----------------|
A|-----------------|---------------4-|
E|-5-5-5-5-5-5-5-5-|-3-3-3-3-3-3-3---|

G|-----------------|-----------------|
D|-----------------|-----------------|
A|-5-5-5-5-5-5-5-3-|---------3-------|
E|-----------------|-5---5-------5---|

Coda/Outro:
G|-----------------|-----------------|
D|-----------------|-----------------|
A|-------------3---|-5---5-3-----3---|
E|-5---5---3-------|---------5-------| ×2

Bridge 2:
G|-----------------|-----------------|
D|-----------------|-----------------|
A|-----------------|-----------------|
E|-5~~~~~~~~~~~~~~-|-3~~~~~~~~~~~~~~-|

G|-----------------|-----------------|
D|-----------------|-----------------|
A|-5~~~~~~~~~~~~~~-|-----------------|
E|-----------------|-5~~~~~~~~~~~~~~-|

G|-----------------|-----------------|
D|-----------------|-----------------|
A|-----------------|-----------------|
E|-5~~~~~~~~~~~~~~-|-3~~~~~~~~~~~~~~-|

G|-----------------|-----------------|
D|-----------------|-----------------|
A|-5~~~~~~~~~~~~~~-|-----------------|
E|-----------------|-5---5---5---5---|
Suggest correction
Give kudos to tab author, rate the tab!
1 2 3 4 5
comments
print report bad tab
guest
You may want to rate the tab now too:
select rating
Wanna post a correction for this tab? Suggest correction