Oops, an error
Loading. Please wait.

Freeze Up tab

version 1
version 1

Whole song

Interactive

7,418 views 9 this week
2 commentsread comments
1 2 3 4 5
x 3
add to favorites
×
Save as Personal and add changes to this tab that will be seen only by you. Learn more ›
×
You can save this tab as Personal to edit and correct it or add notes. All changes will be seen only by you. Learn more »
launch autoscroll
font size
0
reset
how to read this tab
guitar tuner
edit
Autoscroll
slow
fast
+/-
esc
set tempo
stop
Author
Difficulty
couldn't find any good tabs for this song, so i came up with my own, no solo, couldn't 
assed to figure it out, but i'm fairly certain this is 100% correct
   G     D
E|-7-----5------|
B|-8-----7------|
G|-7-----7------|
D|--------------|
A|--------------|
E|--------------|

verse, play as needed, figure out the rhythm yourself
use ska upstrokes throughout
   Am       D     G  D
E|-5--------5-----7--5--|
B|-5--------7-----8--7--|
G|-5--------7-----7--7--|
D|----------------------|
A|----------------------|
E|----------------------|

chorus - play half-time
    Am       G        C         D
E|--5---5----3---3----8---8----10---10-----|
B|--5---5----3---3----8---8----10---10-----|
G|--5---5----4---4----9---9----11---11-----|
D|--7---7----5---5---10--10----12---12-----|
A|-----------------------------------------|
E|-----------------------------------------|

post chours - back to standard time
   Am        D
E|-5---------5----------|
B|-5---------7----------|
G|-5---------7----------|
D|----------------------|
A|----------------------|
E|----------------------|

those are the basic chords, you can probably figure out the rest

            
            
Suggest correction
Creating personal tab
Creating personal tab
You can edit any tab online and save it as your Personal.

You can edit, replace or remove any tab part or add personal notes – all changes will be seen only by you.

Personal tabs can be accessed anytime from any device, even offline.
Learn more »
Give kudos to tab author, rate the tab!
1 2 3 4 5
comments
print report bad tab
2 comments total.
0 reply
Pizzavenger 30 Jan 05, 2009 11:52 AM

Great tab guy

+1 reply
afropunkx 92 May 16, 2009 05:53 AM

Solo:
E-----5-5-----5-5-----5-5-----5------------------------------------
B-----5-5-----5-5-----5-5-----5------------------------------------
G---------7b9-----7b9-----7b9----7-5-3vib.-------------------------
D------------------------------------------------------------------
A------------------------------------------------------------------
E------------------------------------------------------------------

E-----------8-8-------8-8-------8-----------10-10------------------
B-----------8-8-------8-8-------8-----------10-10------------------
G-----10b12-----10b12-----10b12-------------------12-10------------
D-------------------------------------------------------12vib.-----
A------------------------------------------------------------------
E------------------------------------------------------------------

E----------------------------------------------------------------
B----------------------------------------------------------------
G-----7b9-7b9-7b9-7p5vib.---5b7-5b7-5b7-5p3vib.------------------
D----------------------------------------------------------------
A----------------------------------------------------------------
E----------------------------------------------------------------

E----------------------------------------------------------------
B----------------------------------------------------------------
G-----------------5-5-5h7----------------------------------------
D-----------5-7s8------------------------------------------------
A-----3-5s7------------------------------------------------------
E----------------------------------------------------------------

guest
You may want to rate the tab now too:
select rating
Wanna post a correction for this tab? Suggest correction