Oops, an error
Loading. Please wait.

Gonna Find You Tab

version 2
version 2

Whole song

  • Whole song with Missing Coda and bridge. Legend added.

Interactive

13 views 1 this week
no commentswrite comment
1 2 3 4 5
3 more votes to show rating
add to favorites
launch autoscroll
font size
0
reset
how to read this tab
guitar tuner
Autoscroll
slow
fast
+/-
esc
set tempo
stop
Help us to improve Ultimate-Guitar.com Take our survey!
×
Author
Difficulty
novice
About this tab version
Whole song with Missing Coda and bridge. Legend added. Was this info helpful? Yes No
[Intro]
e|-----------------|-----------------|
B|-----------------|-----------------|
G|-7~~~~~~~~~~~~~~-|-7~~~~~~~~~~~~~~-|
D|-7~~~~~~~~~~~~~~-|-7~~~~~~~~~~~~~~-|
A|-5~~~~~~~~~~~~~~-|-5~~~~~~~~~~~~~~-|
E|-----------------|-----------------|

e|-----------------|-----------------|
B|-----------------|-----------------|
G|-7~~~~~~~~~~~~~~-|-7-7-7-7-7-7-7-7-|
D|-7~~~~~~~~~~~~~~-|-7-7-7-7-7-7-7-7-|
A|-5~~~~~~~~~~~~~~-|-5-5-5-5-5-5-5-5-|
E|-----------------|-----------------|

[Chorus]
e|-----------------|-----------------|
B|-----------------|-----------------|
G|-7---7-----------|-7-5-6-7---7-7---|
D|-7---7---3---3---|-7-5-6-7---7-7---|
A|-5---5---3---3---|-5-3-4-5---5-5---|
E|---------1---1---|-----------------|

e|-----------------|-----------------|
B|-----------------|-----------------|
G|-7---7-----------|-5---6-7---7-7---|
D|-7---7---3---3---|-5---6-7---7-7---|
A|-5---5---3---3---|-3---4-5---5-5---|
E|---------1---1---|-----------------|

e|-----------------|-----------------|
B|-----------------|-----------------|
G|-7---7-----------|-7-5-6-7---7-7---|
D|-7---7---3---3---|-7-5-6-7---7-7---|
A|-5---5---3---3---|-5-3-4-5---5-5---|
E|---------1---1---|-----------------|

e|-----------------|-----------------|
B|-----------------|-----------------|
G|-7---7-----------|-5---6-7---7-7---|
D|-7---7---3---3---|-5---6-7---7-7---|
A|-5---5---3---3---|-3---4-5---5-5---|
E|---------1---1---|-----------------|

[Verse]
e|-----------------|-----------------|
B|-----------------|-----------------|
G|-----------------|-5-5-5-5-5-5-5-5-|
D|-5-5-5-5-5-5-5-5-|-5-5-5-5-5-5-5-5-|
A|-5-5-5-5-5-5-5-5-|-3-3-3-3-3-3-3-3-|
E|-3-3-3-3-3-3-3-3-|-----------------|

e|-----------------|-----------------|
B|-----------------|-----------------|
G|-----------------|-5-5-5-5-5-5-5-5-|
D|-3-3-3-3-3-3-3-3-|-5-5-5-5-5-5-5-5-|
A|-3-3-3-3-3-3-3-3-|-3-3-3-3-3-3-3-3-|
E|-1-1-1-1-1-1-1-1-|-----------------|

e|-----------------|-----------------|
B|-----------------|-----------------|
G|-----------------|-5-5-5-5-5-5-5-5-|
D|-5-5-5-5-5-5-5-5-|-5-5-5-5-5-5-5-5-|
A|-5-5-5-5-5-5-5-5-|-3-3-3-3-3-3-3-3-|
E|-3-3-3-3-3-3-3-3-|-----------------|

e|-----------------|-----------------|
B|-----------------|-----------------|
G|-----------------|-5-5-5-5-5-5-5-5-|
D|-3-3-3-3-3-3-3-3-|-5-5-5-5-5-5-5-5-|
A|-3-3-3-3-3-3-3-3-|-3-3-3-3-3-3-3-3-|
E|-1-1-1-1-1-1-1-1-|-----------------|

[Chorus]
e|-----------------|-----------------|
B|-----------------|-----------------|
G|-7---7-----------|-7-5-6-7---7-7---|
D|-7---7---3---3---|-7-5-6-7---7-7---|
A|-5---5---3---3---|-5-3-4-5---5-5---|
E|---------1---1---|-----------------|

e|-----------------|-----------------|
B|-----------------|-----------------|
G|-7---7-----------|-5---6-7---7-7---|
D|-7---7---3---3---|-5---6-7---7-7---|
A|-5---5---3---3---|-3---4-5---5-5---|
E|---------1---1---|-----------------|

e|-----------------|-----------------|
B|-----------------|-----------------|
G|-7---7-----------|-7-5-6-7---7-7---|
D|-7---7---3---3---|-7-5-6-7---7-7---|
A|-5---5---3---3---|-5-3-4-5---5-5---|
E|---------1---1---|-----------------|

e|-----------------|-----------------|
B|-----------------|-----------------|
G|-7---7-----------|-5---6-7---7-7---|
D|-7---7---3---3---|-5---6-7---7-7---|
A|-5---5---3---3---|-3---4-5---5-5---|
E|---------1---1---|-----------------|

[Verse]
e|-----------------|-----------------|
B|-----------------|-----------------|
G|-----------------|-5-5-5-5-5-5-5-5-|
D|-5-5-5-5-5-5-5-5-|-5-5-5-5-5-5-5-5-|
A|-5-5-5-5-5-5-5-5-|-3-3-3-3-3-3-3-3-|
E|-3-3-3-3-3-3-3-3-|-----------------|

e|-----------------|-----------------|
B|-----------------|-----------------|
G|-----------------|-5-5-5-5-5-5-5-5-|
D|-3-3-3-3-3-3-3-3-|-5-5-5-5-5-5-5-5-|
A|-3-3-3-3-3-3-3-3-|-3-3-3-3-3-3-3-3-|
E|-1-1-1-1-1-1-1-1-|-----------------|

e|-----------------|-----------------|
B|-----------------|-----------------|
G|-----------------|-5-5-5-5-5-5-5-5-|
D|-5-5-5-5-5-5-5-5-|-5-5-5-5-5-5-5-5-|
A|-5-5-5-5-5-5-5-5-|-3-3-3-3-3-3-3-3-|
E|-3-3-3-3-3-3-3-3-|-----------------|

e|-----------------|-----------------|
B|-----------------|-----------------|
G|-----------------|-5-5-5-5-5-5-5-5-|
D|-3-3-3-3-3-3-3-3-|-5-5-5-5-5-5-5-5-|
A|-3-3-3-3-3-3-3-3-|-3-3-3-3-3-3-3-3-|
E|-1-1-1-1-1-1-1-1-|-----------------|

[Chorus]
e|-----------------|-----------------|
B|-----------------|-----------------|
G|-7---7-----------|-7-5-6-7---7-7---|
D|-7---7---3---3---|-7-5-6-7---7-7---|
A|-5---5---3---3---|-5-3-4-5---5-5---|
E|---------1---1---|-----------------|

e|-----------------|-----------------|
B|-----------------|-----------------|
G|-7---7-----------|-5---6-7---7-7---|
D|-7---7---3---3---|-5---6-7---7-7---|
A|-5---5---3---3---|-3---4-5---5-5---|
E|---------1---1---|-----------------|

e|-----------------|-----------------|
B|-----------------|-----------------|
G|-7---7-----------|-7-5-6-7---7-7---|
D|-7---7---3---3---|-7-5-6-7---7-7---|
A|-5---5---3---3---|-5-3-4-5---5-5---|
E|---------1---1---|-----------------|

e|-----------------|-----------------|
B|-----------------|-----------------|
G|-7---7-----------|-5---6-7---7-7---|
D|-7---7---3---3---|-5---6-7---7-7---|
A|-5---5---3---3---|-3---4-5---5-5---|
E|---------1---1---|-----------------|

[Coda]
e|-----------------|-----------------|
B|-----------------|-----------------|
G|-7-6-5---5-6-7---|-10-10-9-7-7-7-7-|
D|-7-6-5---5-6-7---|-10-10-9-7-7-7-7-|
A|-5-4-3---3-4-5---|-8--8--7-5-5-5-5-|
E|-----------------|-----------------|

e|-----------------|-----------------|
B|-----------------|-----------------|
G|-7-6-5---5-6-7---|-10-10-9-7-7-7-7-|
D|-7-6-5---5-6-7---|-10-10-9-7-7-7-7-|
A|-5-4-3---3-4-5---|-8--8--7-5-5-5-5-|
E|-----------------|-----------------|

[Bridge]
e|-----------------|-----------------|
B|-----------------|-----------------|
G|-----------------|-----------------|
D|-----------------|-5-5-5-5-5-5-5-5-|
A|-5-5-5-5-5-5-5-5-|-3-3-3-3-3-3-3-3-|
E|-3-3-3-3-3-3-3-3-|-----------------|

e|-----------------|-----------------|
B|-----------------|-----------------|
G|-----------------|-----------------|
D|-----------------|-5-5-5-5-5-X-5-X-|
A|-5-5-5-5-5-5-5-5-|-3-3-3-3-3-X-3-X-|
E|-3-3-3-3-3-3-3-3-|-----------------|

e|-----------------|-----------------|
B|-----------------|-----------------|
G|-----------------|-----------------|
D|-----------------|-5-5-5-5-5-5-5-5-|
A|-5-5-5-5-5-5-5-5-|-3-3-3-3-3-3-3-3-|
E|-3-3-3-3-3-3-3-3-|-----------------|

e|-----------------|-----------------|
B|-----------------|-----------------|
G|-----------------|-----------------|
D|-----------------|-5~~-------------|
A|-5-5-5-5-5-5-5-5-|-3~~-----3-2-3-2-|
E|-3-3-3-3-3-3-3-3-|-----------------|

e|-----------------|-----------------|
B|-----------------|-----------------|
G|-----------------|-5---------------|
D|-5---------------|-5-5-5-5-5-5-5-5-|
A|-5-5-5-5-5-5-5-5-|-3-3-3-3-3-3-3-3-|
E|-3-3-3-3-3-3-3-3-|-----------------|

e|-----------------|-----------------|
B|-----------------|-----------------|
G|-----------------|-5---------------|
D|-5---------------|-5-5-5-5-5-5-5-5-|
A|-5-5-5-5-5-5-5-5-|-3-3-3-3-3-3-3-3-|
E|-3-3-3-3-3-3-3-3-|-----------------|

e|-----------------|-----------------|
B|-----------------|-----------------|
G|-----------------|-5---------------|
D|-5---------------|-5-5-5-5-5-5-5-5-|
A|-5-5-5-5-5-5-5-5-|-3-3-3-3-3-3-3-3-|
E|-3-3-3-3-3-3-3-3-|-----------------|

e|-----------------|-----------------|
B|-----------------|-----------------|
G|-----------------|-5-5-5-5-5-5-5-5-|
D|-5---------------|-5-5-5-5-5-5-5-5-|
A|-5-5-5-5-5-5-5-5-|-3-3-3-3-3-3-3-3-|
E|-3-3-3-3-3-3-3-3-|-----------------|

[Chorus]
e|-----------------|-----------------|
B|-----------------|-----------------|
G|-7---7-----------|-7-5-6-7---7-7---|
D|-7---7---3---3---|-7-5-6-7---7-7---|
A|-5---5---3---3---|-5-3-4-5---5-5---|
E|---------1---1---|-----------------|

e|-----------------|-----------------|
B|-----------------|-----------------|
G|-7---7-----------|-5---6-7---7-7---|
D|-7---7---3---3---|-5---6-7---7-7---|
A|-5---5---3---3---|-3---4-5---5-5---|
E|---------1---1---|-----------------|

e|-----------------|-----------------|
B|-----------------|-----------------|
G|-7---7-----------|-7-5-6-7---7-7---|
D|-7---7---3---3---|-7-5-6-7---7-7---|
A|-5---5---3---3---|-5-3-4-5---5-5---|
E|---------1---1---|-----------------|

e|-----------------|-----------------|
B|-----------------|-----------------|
G|-7---7-----------|-5---6-7---7-7---|
D|-7---7---3---3---|-5---6-7---7-7---|
A|-5---5---3---3---|-3---4-5---5-5---|
E|---------1---1---|-----------------|

[Ending]
e|-----------------|-----------------|
B|-----------------|-----------------|
G|-7-6-5---5-6-7---|-10-10-9-7-7-7-7-|
D|-7-6-5---5-6-7---|-10-10-9-7-7-7-7-|
A|-5-4-3---3-4-5---|-8--8--7-5-5-5-5-|
E|-----------------|-----------------|

e|-----------------|-----------------|
B|-----------------|-----------------|
G|-7-6-5---5-6-7---|-10-10-9~~~~~~~~-|
D|-7-6-5---5-6-7---|-10-10-9~~~~~~~~-|
A|-5-4-3---3-4-5---|-8--8--7~~~~~~~~-|
E|-----------------|-----------------|

*********************************** 
| x   deadnote 
| ~   vibrato 
***********************************
Suggest correction
Give kudos to tab author, rate the tab!
1 2 3 4 5
comments
print report bad tab
guest
You may want to rate the tab now too:
select rating
Wanna post a correction for this tab? Suggest correction