Oops, an error
Loading. Please wait.

Junkies Runnin Dry bass

version 2
version 2

Whole song

860 views 1 this week
no commentswrite comment
1 2 3 4 5
1 last vote to show rating
add to favorites
×
Save as Personal and add changes to this tab that will be seen only by you. Learn more ›
×
You can save this tab as Personal to edit and correct it or add notes. All changes will be seen only by you. Learn more »
launch autoscroll
font size
0
reset
guitar tuner
edit
Autoscroll
slow
fast
+/-
esc
set tempo
stop
Author
Difficulty
Band- Operation Ivy
Song- Junkies Runnin Dry
Tabbed By- sPecialK

INTRO 3X
G----------------------------------------------------------------------------|
D----------------0H-2-P0-----------------------------------------------------|
A--------------33-------3----------------------------------------------------|
E-111111-333333--------------------------------------------------------------|
(THIS PART 1X AT END)
G----------------------------------------------------------------------------|
D--333333--------------------------------------------------------------------|
A--------------33-33---------------------------------------------------------|
E--------333333--------------------------------------------------------------|

VERSE 1
PLAY 4X
G----------------------------------------------------------------------------|
D----------------------------------------------------------------------------|
A-------------330------------------------------------------------------------|
E-33333--11111---33333-------------------------------------------------------|


VERSE 2
PLAY 2X
G-----3-----3----------------------------------------------------------------|
D----3-----3---350-----------------------------------------------------------|
A-1H3---1H3--35---5----------------------------------------------------------|
E----------------------------------------------------------------------------|

CHORUS
PLAY 4X
G----------------------------------------------------------------------------|
D----------------0H-2-P0-----------------------------------------------------|
A--------------33-------3----------------------------------------------------|
E-111111-333333--------------------------------------------------------------|


BRIDGE

G----------------------------------------------------------------------------|
D----------------------------------------------------------------------------|
A----33-------33-------------------------------------------------------------|
E-331--333-331--333----------------------------------------------------------|

G-----3-----3----------------------------------------------------------------|
D----3-----3---350-----------------------------------------------------------|
A-1H3---1H3--35---5----------------------------------------------------------|
E----------------------------------------------------------------------------|

G----------------------------------------------------------------------------|
D----------------------------------------------------------------------------|
A-111110H1P0-----235---------------------------------------------------------|
E-----------33333------------------------------------------------------------|

CHORUS
PLAY 4X
G----------------------------------------------------------------------------|
D----------------0H-2-P0-----------------------------------------------------|
A--------------33-------3----------------------------------------------------|
E-111111-333333--------------------------------------------------------------|


The order might be a little off, but for the most part thats what Matt is playing. 
good finger exercise song have fun!!

            
            
Suggest correction
Creating personal tab
Creating personal tab
You can edit any tab online and save it as your Personal.

You can edit, replace or remove any tab part or add personal notes – all changes will be seen only by you.

Personal tabs can be accessed anytime from any device, even offline.
Learn more »
Give kudos to tab author, rate the tab!
1 2 3 4 5
comments
print report bad tab
guest
You may want to rate the tab now too:
select rating
Wanna post a correction for this tab? Suggest correction