Oops, an error
Loading. Please wait.

Unity Tab

version 1
version 1

Whole song

10,152 views 12 this week
4 commentsread comments
1 2 3 4 5
x 5
add to favorites
launch autoscroll
font size
0
reset
how to read this tab
guitar tuner
×
Best way to learn
"Unity"
Autoscroll
slow
fast
+/-
esc
set tempo
stop
normal tuning
EADGBC

Intro
E[------------------------
B[------------------------
G[---7--9--7-----7--9--7--
D[7--7--9--7--7--7--9--7--
A[7--5--7--5--7--5--7--5--
E[5-----------5-----------

Chorus- this is all power chords
E[--------------------------------
B[--------------------------------
G[----77--99--77------77--99--77--
D[77--77--99--77--77--77--99--77--
A[77--55--77--55--77--55--77--55--
E[55--------------55--------------

Verse- this is played with a ska upstroke 
E[-5-5-5-5-5-5-5-5/7-7-7-7-7-5-5-5-5-5-5-5-5-5-5-5-5/7-7-7-7-7-5-5-5-5
B[-5-5-5-5-7-7-7-7/9-9-9-9-9-7-7-7-7-5-5-5-5-7-7-7-7/9-9-9-9-9-7-7-7-7
G[-6-6-6-6-7-7-7-7/9-9-9-9-9-7-7-7-7-6-6-6-6-7-7-7-7/9-9-9-9-9-7-7-7-7
D[-7-7-7-7---------------------------7-7-7-7--------------------------
A[--------------------------------------------------------------------
E[--------------------------------------------------------------------


Repeat Chorus

Repeat Verse

Repeat Chorus

Repeat Verse

Repeat Chorus

Bridge- Do this twice
E[--------------------------------------------
B[--------------------------------------------
G[------777--9-999-777--------777--9-999-777--
D[7-777-777--9-999-777--7-777-777--9-999-777--
A[7-777-555--7-777-555--7-777-555--7-777-555--
E[5-555-----------------5-555-----------------

Yet again, Repeat Chorus

And i think the rest is self-sufficient.
Just listen to the song to get the correct timing.  Enjoy!
Suggest correction
comments
print report bad tab
4 comments total. Showing first comments.
0 reply
Audioboxer829 40 Oct 22, 2004 08:00 PM

this is alright in the sence that the chords are right, the chorus is off just because the rythems and number of times you play it isnt right... theres some muting going on in it (i would explain but i dont feel like it.... lol) either ways, good tab

0 reply
alifly21 86 Feb 23, 2005 07:00 PM

pretty good, but u left out this harmony 2nd guitar part. listen to the song and you'll know what i mean. this is it, i think
|-------------------------------------------------------------
|------------------------------------------------------------- there r
|-------------------------------------------------------------variations
|-----------11p9-7----7--------------------------------------- at differ
|------------------7/9--7------------7-7--9/11/9-7------------ ent parts
|-------------------------------7h9---------------------------
(stop this) (war...) (stop this)

0 reply
Lurkinsdontwash 10 Mar 01, 2006 08:41 AM

This tab is ****ing awesome man!
rock on Op Ivy
Rock on Ska or punk or whateva Op Ivy is!!!
woo!
now sum1 needs to do a good tab for knowledge coz its a gr8 song with crap tabs.

guest
You may want to rate the tab now too:
select rating
Wanna post a correction for this tab? Suggest correction