Oops, an error
Loading. Please wait.

Voodoo Lady bass

157 views 1 this week
no commentswrite comment
1 2 3 4 5
3 more votes to show rating
add to favorites
×
Save as Personal and add changes to this tab that will be seen only by you. Learn more ›
×
You can save this tab as Personal to edit and correct it or add notes. All changes will be seen only by you. Learn more »
launch autoscroll
font size
0
reset
guitar tuner
edit
Autoscroll
slow
fast
+/-
esc
set tempo
stop
Author
Difficulty
this is a fun song to play and it's not too hard. Play it with a sort of swager get 
about your playin put your on ring also the cd i listen to was live with this song so my not 
fully right or change play cords GDAE you can or play it flat its up to you have fun

           play intro 5 X
|----------------------------------------|
|11---11---11--------11---11---11--------|
|---------------3344----------------3344-|
|----------------------------------------|

         chorus play 2X
|-----------------------------------------|
|1111----------------1111-----------------|
|-----4444--------44-------4444-------44--|
|----------4444-4---------------4444-4----|


  verse   play 4 X
|----------------------------------------|
|11---11---11--------11---11---11--------|
|---------------3344----------------3344-|
|----------------------------------------|


 bridge 2 X
|----------------------------------------|
|-112-1---------------112-1----4444-6666-|
|4---------43-3-2----4-------------------|
|----------------------------------------|


  verse  play 4 X
|----=-----------------------------------|
|11---11---11--------11---11---11--------|
|---------------3344----------------3344-|
|----------------------------------------|


bridge   play 2 X

|---------------------------------------|
|-112-1--------------1121----4444-6666--|
|4--------43-3-2---4--------------------|
|---------------------------------------|

        chorus X 8
|----------------------------------------|
|1111----------------1111----------------|
|-----4444-------44-------4444-------44--|
|----------4444-4--------------4444-4----|


  play this X 2
|----------------------------------------|
|11---11---11--------11---11---11--------|
|---------------3344----------------3344-|
|----------------------------------------|

            
            
Suggest correction
Creating personal tab
Creating personal tab
You can edit any tab online and save it as your Personal.

You can edit, replace or remove any tab part or add personal notes – all changes will be seen only by you.

Personal tabs can be accessed anytime from any device, even offline.
Learn more »
Give kudos to tab author, rate the tab!
1 2 3 4 5
comments
print report bad tab
guest
You may want to rate the tab now too:
select rating
Wanna post a correction for this tab? Suggest correction