Oops, an error
Loading. Please wait.

Vulnerability bass

version 1
version 1

Whole song

Interactive

85 views 3 this week
no commentswrite comment
1 2 3 4 5
3 more votes to show rating
add to favorites
×
Save as Personal and add changes to this tab that will be seen only by you. Learn more ›
×
You can save this tab as Personal to edit and correct it or add notes. All changes will be seen only by you. Learn more »
launch autoscroll
font size
0
reset
guitar tuner
edit
Autoscroll
slow
fast
+/-
esc
set tempo
stop
Author
Difficulty
[Intro] 
No bass

[Verse 1]
I saw this guy go down
Wasn't time for fear
Before his body hit the ground.
G|------------------------------------------------------|   
D|------------------------------------------------------|  ((x2))
A|-5-5-5-5-5-5-5-5------------5-5-5-5-------------------|
E|---------------------3-3-3-3--------------------------|

[Chorus]
Our vulnerability is all our insensitivity.
G|------------------------------------------------------|   
D|------------------------------------------------------|  (x2)
A|-5-5-5-5-5-5-5-5------------5-5-5-5-------------------|
E|---------------------3-3-3-3--------------------------|

[Verse 2]
Car that hit him pulled to a stop.
Driver hid the bottles.
He anticipated cops.
G|------------------------------------------------------|   
D|------------------------------------------------------|  (x2)
A|-5-5-5-5-5-5-5-5------------5-5-5-5-------------------|
E|---------------------3-3-3-3--------------------------|

[Chorus]
Our vulnerability is all our insensitivity.
G|------------------------------------------------------|   
D|------------------------------------------------------|  (x2)
A|-5-5-5-5-5-5-5-5------------5-5-5-5-------------------|
E|---------------------3-3-3-3--------------------------|

[Interlude 1]
Oh yeah!
G|------------------------------------------------------|   
D|------------------------------------------------------|  (x2)
A|-5-5-5-5-5-5-5-5------------5-5-5-5-------------------|
E|---------------------3-3-3-3--------------------------|

[Verse 3]
Crowd assembled to take a look at death.
Shattered skull fragile body
Blacktop running red.
G|------------------------------------------------------|   
D|------------------------------------------------------|  (x2)
A|-5-5-5-5-5-5-5-5------------5-5-5-5-------------------|
E|---------------------3-3-3-3--------------------------|

[Chorus]
Our vulnerability is all our insensitivity.
G|------------------------------------------------------|   
D|------------------------------------------------------|  (x2)
A|-5-5-5-5-5-5-5-5------------5-5-5-5-------------------|
E|---------------------3-3-3-3--------------------------|

[Verse 4]
People looked bored
Like expecting more
People looked bored like expecting more.
G|------------------------------------------------------|   
D|------------------------------------------------------|  (x2)
A|-5-5-5-5-5-5-5-5------------5-5-5-5-------------------|
E|---------------------3-3-3-3--------------------------|

[Interlude 2]
And sympathy is only friendship's whore, you know,
And maybe we don't know who we are anymore.
Another spectacle, and it's respectable
To take it lightly like another tv show.
So desensitized, so dehumanized
Why stop and think when you can find someplace to go.
G|------------------------------------------------------|
D|------------------------------------------------------|
A|-------5--5-------------------------------------------|
E|-3--3---------5-5-5-5-5-3s5--5-5-5-5-5-3s5------------|

G|------------------------------------------------------|
D|------------------------------------------------------|   whole thing (x2)
A|---------------5--5--5--5-----------------------------|
E|-3--3--3--3-------------------------------------------|

G|------------------------------------------------------|
D|------------------------------------------------------|
A|------------------------------------------------------|
E|--5-5-5-5-5-3s5---5-5-5-5-5-3s5-----------------------|
    
[Verse 5]
We're drowning...
G|------------------------------------------------------|   
D|------------------------------------------------------|  (x2)
A|-5-5-5-5-5-5-5-5------------5-5-5-5-------------------|
E|---------------------3-3-3-3--------------------------|

[Chorus]
Our vulnerability is all our insensitivity.
G|------------------------------------------------------|   
D|------------------------------------------------------|  (x2)
A|-5-5-5-5-5-5-5-5------------5-5-5-5-------------------|
E|---------------------3-3-3-3--------------------------|

[Verse 6]
we're drowning...
G|------------------------------------------------------|   
D|------------------------------------------------------|  (x2)
A|-5-5-5-5-5-5-5-5------------5-5-5-5-------------------|
E|---------------------3-3-3-3--------------------------|

[Chorus]
Our vulnerability is all our insensitivity.
G|------------------------------------------------------|   
D|------------------------------------------------------|  (x2)
A|-5-5-5-5-5-5-5-5------------5-5-5-5-------------------|
E|---------------------3-3-3-3--------------------------|

And it's gonna be the death of us just you wait and see

            
            
Suggest correction
Creating personal tab
Creating personal tab
You can edit any tab online and save it as your Personal.

You can edit, replace or remove any tab part or add personal notes – all changes will be seen only by you.

Personal tabs can be accessed anytime from any device, even offline.
Learn more »
Give kudos to tab author, rate the tab!
1 2 3 4 5
comments
print report bad tab
guest
You may want to rate the tab now too:
select rating
Wanna post a correction for this tab? Suggest correction