Oops, an error
Loading. Please wait.

Leave It Alone tab

version 1
version 1

Whole song

1,289 views 1 this week
1 commentread comment
1 2 3 4 5
2 more votes to show rating
add to favorites
×
Save as Personal and add changes to this tab that will be seen only by you. Learn more ›
×
You can save this tab as Personal to edit and correct it or add notes. All changes will be seen only by you. Learn more »
launch autoscroll
font size
0
reset
how to read this tab
guitar tuner
edit
Autoscroll
slow
fast
+/-
esc
set tempo
stop
Intro taken from Leave It Alone Intro Tab @
http://www.ultimate-guitar.com/tabs/o/operator_please/leave_it_alone_intro_tab.htm

Easy song, TONS of fun to play!


After violin riff, this comes in through verse 1 and verse 2.

e|----------------5------------------------------------------------------------|
B|-7-7-5-7-5--775--------------------------------------------------------------|
G|-----------------------------------------------------------------------------|
D|-----------------------------------------------------------------------------|
A|-----------------------------------------------------------------------------|
E|-----------------------------------------------------------------------------|

The chorus has three notes played in this order (listen to the song for timing)
      D    Em    Bm    Em    Bm    Em    D
e|---(5)---7-----2-----7-----2-----7----(5)------------------------------------|
B|----7----8-----3-----8-----3-----8-----7-------------------------------------|
G|----7----9-----4-----9-----4-----9-----7-------------------------------------|
D|----7----9-----4-----9-----4-----9-----7-------------------------------------|
A|----5----7-----2-----7-----2-----7-----5-------------------------------------|
E|-----------------------------------------------------------------------------|


Small Bridge at starting at 1:45:

e|-------------------:|------------------------------------------------------
B|-------------------:|------------------------------------------------------
G|-------------------:|------------------------------------------------------
D|-------------------:|-x2---------------------------------------------------
A|-2-2-2-2-2-2-2-2-0-:|-----2-2-2-2-2-2-2-2-0-2-2-2-2-2-2-2-2-0-5-5-5-5-5-5-5
E|-------------------:|------------------------------------------------------

e|--------------------:||
B|--------------------:||
G|--------------------:|| x2 then to chorus
D|--------------------:||
A|-2-0-2-2-2-2-2-2-(0):||
E|--------------------:||

And then back to the chorus. There's a small solo that I don't quite have time for right 
but from what I can tell it's just sliding around with frets 10, 12, 14, and 17 on the 
string (e). The solo starts on the 14 fret at 2:39.

Have a blast :)

-D.A.J.K.C. (earplugs_are_useless@hotmail.com)
Suggest correction
Creating personal tab
Creating personal tab
You can edit any tab online and save it as your Personal.

You can edit, replace or remove any tab part or add personal notes – all changes will be seen only by you.

Personal tabs can be accessed anytime from any device, even offline.
Learn more »
Give kudos to tab author, rate the tab!
1 2 3 4 5
comments
print report bad tab
1 comment total.
0 reply
CapeKid 10 Mar 21, 2010 07:19 PM

I believe the violin riff is actually this:

e|----------------5-------------------------|
B|-7-7-5-7-5--7757--------------------------|
G|------------------------------------------|
D|------------------------------------------|
A|------------------------------------------|
E|------------------------------------------|

but otherwise perfect.

guest
You may want to rate the tab now too:
select rating
Wanna post a correction for this tab? Suggest correction