Oops, an error
Loading. Please wait.

A Fair Judgement Tab

version 1
version 1

Whole song

Interactive

43,272 views 69 this week
13 commentsread comments
1 2 3 4 5
x 17
add to favorites
launch autoscroll
font size
0
reset
how to read this tab
guitar tuner
×
Best way to learn
"A Fair Judgement"
Autoscroll
slow
fast
+/-
esc
set tempo
stop
Tuning:(E,A,D,G,B,E)

[Intro] 
[Part 1]
e|-------------|
B|-5~------0~--|
G|-2~------2~--| (x8)
D|-2~------1~--|
A|-0~------2~--|
E|-------------|

[Part 2]
(2 times)
(Gtr 1)
e|----------------------------------------------------------|
B|----------------------------------------------------------|
G|----------------------------------------------------------|
D|--2------4------5------7--x-4-2------4------5------9-9/10-|
A|--2------4------5------7--x-4-2------4------5------9-9/10-|
E|--0------2------3------5--x-2-0------2------3------7-7/8--|

(Gtr 2)
e|----------------------------------------------------------|
B|----------------------------------------------------------|
G|-/9~------------------------------------------------------|
D|---------9~----12-----------7-7h9-9~----------------------|
A|------------------10-9-7~-7-------------------------------|
E|----------------------------------------------------------|

(Gtr 1)
e|----------------------------------------------------------|
B|----------------------------------------------------------|
G|----------------------------------------------------------|
D|--2------4------5------7--x-4-2------4------5------9-9/10-|
A|--2------4------5------7--x-4-2------4------5------9-9/10-|
E|--0------2------3------5--x-2-0------2------3------7-7/8--|

(Gtr 2)
e|----------------------------------------------------------|
B|----------------------------------------------------------|
G|-/9~------------------------------------------------------|
D|---------9~----12-----------7-7h9-------------------------|
A|------------------10-9-7~-7-------7~----------------------|
E|----------------------------------------------------------|

(Gtr 2)
e|-----------------------------------------------------|
B|-/5-4h5p4---4---4-5-7-10-8-7-5~----------------------|
G|----------4---4--------------------------------------|
D|-----------------------------------------------------|
A|-----------------------------------------------------|
E|-----------------------------------------------------|

[Part 1]
e|-------------|
B|-5~------0~--|
G|-2~------2~--| (x8)
D|-2~------1~--|
A|-0~------2~--|
E|-------------|

[Part 1]
e|-------------|
B|-5~------0~--|
G|-2~------2~--| (x8)
D|-2~------1~--|
A|-0~------2~--|
E|-------------|

(Gtr 2)
e|-----------------------------------------------------|
B|-----------------------------------------------------|
G|-9--9-9--9-7--7-7--7-4--4-4--4-5--5-5--5-12--12-12---|
D|-----------------------------------------------------|
A|-7--7-7--7-5--5-5--5-2--2-2--2-3--3-3--3-10--10-10---|
E|-----------------------------------------------------|

e|---------------------|
B|---------------------|
G|-12-11--11-11--11-12-|
D|---------------------|
A|-10--9---9--9---9-10-|
E|---------------------|

[Part 3] (2 times)
e|-------0-----------0-----------0-----------0---------|
B|-----0---0-------0---0-------0---0-------0---0-------|
G|---0-------0---0-------0---0-------0---0-------0---0-|
D|-4-----------4-----------5-----------7-----------9---|
A|-----------------------------------------------------|
E|-----------------------------------------------------|

e|---------------0----------------|
B|---0---------0-------0----------|
G|---------0---------0-----0------|
D|-7---5-4---4-----7-----5---4/2~-|
A|--------------------------------|
E|--------------------------------|

e|-------0-----------0-----------0-----------0---------|
B|-----0---0-------0---0-------0---0-------0---0-------|
G|---0-------0---0-------0---0-------0---0-------0-----|
D|-4-----------4-----------5-----------7---------------|
A|-----------------------------------------------------|
E|-----------------------------------------------------|

e|-----------------0----------------|
B|-8---7---5-3-------3-/3---3-2-0~--|
G|---0---0-----0----------0---------|
D|-9---7---5-4---4-----/5-----4-2~--|
A|----------------------------------|
E|----------------------------------|

[Part 4]
e|---------0-2-3-5---7---8-7-5-------------------------|
B|-------0---------0---0-------8-7p5-8p7-5h7-8/10-11---|
G|-----2---------------------------------------------0-|
D|---1-----------4---5---------------------------------|
A|-2---------------------0------------------------10---|
E|-------------0---------------------0-----------------|

e|-----------------------------0------|
B|-8---5---------------------3---3----|
G|---0---0-4---5-----------0-------3~-|
D|-----------0---0---0---3------------|
A|-7---4-----------0---1--------------|
E|---------3---2----------------------|

[Part 5] (6 times)
e|-----------------------------------------------------|
B|-----6---6------5---6--------------------------------|
G|-----7---7------7---7------7---7------7---9------3---|
D|---7----------7------------8---8------7---7------5---|
A|-5-----5----5-----5------8----------7----------5-----|
E|-----------------------6-----6----5-----5----3-----3-|

e|-----------------------------|
B|-----------------------------|
G|-3------0-----0-----0--------|
D|-5----0-----0-----0-----0----|
A|-----------------------------|
E|----1-----3-----6-----5---8--|

[Solo 1]
e|-----------------------------------------------------|
B|-----------------------------------------------------|
G|---------------------5---5h7p5-----------------------|
D|-----------3---3h5/7---7-------5p3p0-3/5-5/7~-5/3----|
A|-/5~-0h3h5---5---------------------------------------|
E|-----------------------------------------------------|

e|-------------------------------10h12-13p12-10h12p10--|
B|--------------------------8/10-----------------------|
G|-----5/7-10-9-7-9h10p9-7~----------------------------|
D|-3/5-------------------------------------------------|
A|-----------------------------------------------------|
E|-----------------------------------------------------|

e|-8/10-10~-10-10/8~----------------------13------------------|
B|-------------------10----------------10----10/8-------------|
G|----------------------10h12h14p12p10------------10/12-10p9~-|
D|------------------------------------------------------------|
A|------------------------------------------------------------|
E|------------------------------------------------------------|

[Part 6] (4 times)
e|-----------------------------------|
B|---2-0-3---3-3---3-3---3-3---3-----|
G|-------0---0-0---0-0---0-0---0-----|
D|---------2-----2-----2-----2-------|
A|-2-----------------------------0---|
E|-----------------------------------|

[Part 7] (4 times)
e|---2--2---0--0--------------------|
B|---3--3---0--0--------------------|
G|---4--4---0--0--------------------|
D|---4--4---2--2--------------------|
A|-2--------2--2--/7-7--7-5p4-4~----|
E|--------0-------------------------|

e|---2--2---0--0-----------------------|
B|---3--3---0--0-----------------------|
G|---4--4---0--0-----------------------|
D|---4--4---2--2-----------------------|
A|-2--------2--2--/7-7--5p4--------1-1-|
E|--------0-----------------7-6-2--2-2-|
                                   . .

[Solo 2]
e|--------------------------------------------------|
B|-------------------------------------19-----------|
G|-------------16-18h19p18-16-18h19/21----19/16-----|
D|----------16----------------------------------16~-|
A|-14-16-17-----------------------------------------|
E|--------------------------------------------------|

e|-------------------------------------------------------|
B|-------------------------------------------------------|
G|-14~-16------------------------------------------------|
D|--------14p12/14~-------14-16~-19-17-16h17p16----16h17-|
A|------------------14-17-----------------------19-------|
E|-------------------------------------------------------|

e|------------------------------------------------------------|
B|------------------------------------------------------------|
G|---------------------------------------------16-19-18h19p18-|
D|---------------------------------------14h16----------------|
A|-19-17h19p17-16h17~-16h17p16-14~-12/14----------------------|
E|------------------------------------------------------------|

e|---------------------------------------------------------|
B|---------------------------------------------------------|
G|-14/16-16~-16-14----14--------------------------14-------|
D|-----------------16----16h19p16-14h16p14-12/14b----16p14-|
A|---------------------------------------------------------|
E|---------------------------------------------------------|

e|---------------14b-12~-12h14-15-14-12h14p12----12-------------|
B|--------------------------------------------15----15-14h15p14-|
G|--------------------------------------------------------------|
D|----14--------------------------------------------------------|
A|-17----17/16~-------------------------------------------------|
E|--------------------------------------------------------------|

e|----------------12------------------------------------------|
B|-12h14-12-14h15----15p14-15p14p12---------------------------|
G|----------------------------------11~------------9-11b-11-9-|
D|---------------------------------------11/9/11/9------------|
A|------------------------------------------------------------|
E|------------------------------------------------------------|

e|-------------------------------------------------------|
B|-12-10~------------------------------------------------|
G|--------12-11h12p11-12-11h12p11p9-11-8-----------------|
D|---------------------------------------12-11-11h12/16~-|
A|-------------------------------------------------------|
E|-------------------------------------------------------|

e|-------------------------------------------------------------------|
B|-------------------------------------------------------------------|
G|-16b-16b-16b-16b-16b-16b-------------------------------------------|
D|---------------------16-19p18-16--------------16-19p18-16----16/18-|
A|---------------------------------17-17/19-----------------17-------|
E|------------------------------------------19~----------------------|

e|------------------------------------------------------------|
B|---------------------------------------15-------15-------15-|
G|---------------------------------13h14----13h14----13h14----|
D|-19-18-16-19p18-16------------------------------------------|
A|-------------------17-17/19-14~-----------------------------|
E|------------------------------------------------------------|

e|-------------------------------------------------------------|
B|----------15-------------------------------------------------|
G|-14-13-------16----------------------------------14----------|
D|-------16-------16-12----------------14-17-14-16----16-14----|
A|----------------------14----------14----------------------17-|
E|-------------------------14-12-15----------------------------|

e|----------------------------------------------------------------------------|
B|----------------------------------------------------------------------------|
G|----------------------------------------------------------------------------|
D|-14/16/14----16/17/16----------------------------12----12-14-12-14-16-14-16-|
A|----------17-------------------12----12-14-12-14----14----------------------|
E|----------------------14-12-14----14----------------------------------------|

e|----------------------------------------------------------|
B|-------------------15----------------------------------15-|
G|-14h16-16-16-16-16----16-16-16-16-16-14h16-16-16-16-16----|
D|----------------------------------------------------------|
A|----------------------------------------------------------|
E|----------------------------------------------------------|

e|----------------------------------14----------------------|
B|-------------------------------------15-------------------|
G|-16-16-16-16-16-14h16-16-16-16-16-------16----------------|
D|-------------------------------------------16-------------|
A|----------------------------------------------17-16h17p16-|
E|----------------------------------------------------------|

e|-------------14----------15-17-14-|
B|----------15----15/17-14----------|
G|-------16-------------------------|
D|----16----------------------------|
A|-14-------------------------------|
E|----------------------------------|

[Part 8]
(under solo)
e|--------------------------------|
B|--------------------------------|
G|-4-7-0--4-7-9--4-7-9-11-4-----9-|
D|-4-7-2--4-7-9--4-7-9-11-4-2-4-9-|
A|-2-5-2--2-5-7--2-5-7--9-2-2-4-7-|
E|-----0--------------------0-2-0-|

[Part 9]
(fade out after 6 times)
e|----------------------------------------------------------------|
B|----------------------------------------------------------------|
G|------------9-9---9-8-------------------------------------------|
D|-5--4--2----9---9---8--10-7-4---8--7--4-4------8--7-----4-3-----|
A|-5--4--2-/7-7-------6--10-7-4---8--7--4-4--4-4-8--7-7-7-4-3-3-3-|
E|-3--2--0----------------8-5-2---6--5--2-2--2-2-6--5-5-5-2-1-1-1-|


************************************

| ~  Vibrato
| x  Dead note
| /  Slide up
| h  Hammer-on
| p  Pull-off
| .  Staccato
| b  Bend

************************************
Suggest correction
comments
print report bad tab
13 comments total. Showing first comments.
0 reply
unearth3562 30 Nov 24, 2004 12:00 AM

Perfect

0 reply
larry jones 371 Apr 22, 2007 02:25 AM

What he said.

0 reply
mS-MysTiC 335 Sep 08, 2007 12:23 PM

I seem to have to disappoint you, the acoustic part is a little bit off. 4 stars though.

guest
You may want to rate the tab now too:
select rating
Wanna post a correction for this tab? Suggest correction