Oops, an error
Loading. Please wait.

Advent Tab

version 1
version 1

Whole song

Interactive

10,905 views 1 this week
no commentswrite comment
1 2 3 4 5
accurate
x 5
add to favorites
launch autoscroll
font size
0
reset
how to read this tab
guitar tuner
Autoscroll
slow
fast
+/-
esc
set tempo
stop
Help us to improve Ultimate-Guitar.com Take our survey!
×
                             OPETH - ADVENT      
                      From the Album MORNINGRISE              
                  Copyright 1996 Candlelight Records 
                       Version 1.0 - October 98   

Transcription Done By: Pierre "Boz" Sarda 

For Questions, Comments, Corrections, or Newest Version;   
          please contact : boz@charlie.e-technik.uni-dortmund.de 


  
.  - palm mute                          /  - slide up to                        
\  - slide down to                      ~  - vibrato                             
"  - tremelo picking                    () - ghost note 
p  - pull off                           h  - hammer-on  


Tuning E  (E,A,D,G,B,E) 



Riff 1 (classical guitar) 
|----------------------------|  
|----------------------------|  
|----------------------------| Gtrs   
|-9--9-9--9-9---9--9-9--9-9--|  I&II 
|-7--7-7--7-7---10-1010-1010-|  
|-0--0-0--0-0---0--0-0--0-0--|  


repeat 7 times with crescendo then 


Riff 2 (electrical guitar)                           |5 times| 6  |  
|----------------------------------------------------|-------|----|  
|----------------------------------------------------|-------|----|  
|----------------------------------------------------|-------|----| Gtr  
|-2-222-2-222---------------2------------------------|-------|-10-|  I 
|-2-222-2-222--------2--2---2-222-7~--7-10-9-9h10p9-7\6~-6h7-|-8--|  
|-0-000-0-000--3-2-X------3-0-000--------------------|-------|----|  
|                                                             hold|  
|----------------------------------------------------|-------|----|  
|----------------------------------------------------|-------|----|  
|-------7--------------------------------------------|-------|----| Gtr  
|-5-555---55555555-5\4-44-452-222---222-5-4----------|-------|-3--|  II 
|---------------------------------------------------5|2------|-3--|  
|----------------------------------------------------|-------|-1--|  
  
  
             | classical guitar  
|------------|-------------------|  
|------------|--5-------5--------|  
|------------|--5-------5--------| Gtrs  
|-3-------3--|--7-------7--------|  I&II 
|-3-hold--3--|--7-hold--7-hold---|  
|-1-------1--|--5-------5--------|  
   
  
|-------|  
|-------|  
|-------| Gtrs 
|-------|  I&II 
|-77-8--|  
|-55-6--|  
  
  
Riff 3                     | end  
|--------------------------|---------|  
|--------------------------|---------|  
|--------------------------|---------| Gtr  
|--------------------------|-8-8X88--|  I 
|-5h77-7--5p77----9p77-9-10|-8-8X88--|  
|--------------------------|-6-6X66--|  
|                                    | 
|--------------------------|---------|  
|--------------------------|---------|  
|--------------------------|---------| Gtr  
|-2-22-2--2-22-2--5-55-5---|-8-8X88--|  II 
|-2-22-2--2-22-2--5-55-5---|-8-8X88--|  
|-0-00-0--0-00-0--3-33-3---|-6-6X66--|  


repeat Riff 3 4 times and there play end twice  
  

Riff 3 
|----------------------------------|  
|----------------------------------|  
|----------------------------------| Gtr  
|--------------------------8-8X88--|  I 
|-5h77-7--10p77--9p77-9-10-8-8X88--|  
|--------------------------6-6X66--|  
|                                  | 
|----------------------------------|  
|----------------------------------|  
|----------------------------------| Gtr  
|-2-------2-------5--------8-8X88--|  II 
|-2-hold--2-hold--5-hold---8-8X88--|  
|-0-------0-------3--------6-6X66--|  


repeat Riff 3 (4 times) and then play:  
  
|--------------------------|  
|--------------------------|  
|--------------------------| Gtr  
|---------------------2----|  I 
|-7-----109-----------2----|  
|-5-----8-7-----3-----0----|  
|               pm   hold  | 
|--------------------------|  
|--------------------------|  
|--------------------------| Gtr  
|-10X10--------------------|  II 
|-------7-6-7-9--10h12-10~-|  
|--------------------------|  
                             
       
|----| 
|----| 
|----| Gtrs I 
|----|   & II 
|-5h7| 
|----| 
               

Riff 4  
|----------------------------------------------------------------|  
|----------------------------------------------------------------|  
|----------------------------------------------------------------|Gtrs  
|----------------------------------------------------------------| I&II  
|-----5h7-----5h7------5h7------7p5-----7--8--7------3/5-----5h7-|  
|-0000----0000----6-666----6-666----5555-55-55-5\1111----4444----|  
                                                         **************  
                                                    I know it s wrong but   
                                                    that sounds also good:)  


Riff 5     4 times 
|-----------------|  
|-----------------|  
|-----------------| Gtr  
|-----------------|  I 
|-7-7-5-7-8-7-5-7-|  
|-5---------------|  
|                 | 
|-----------------|  
|-----------------|  
|-----------------| Gtr  
|---------910-9-7-|  II 
|-7-7---7---------|  
|-----10----------|  
  
  
Riff 6     2 times            2 times  
|-----------------|------------------|  
|-----------------|------------------|  
|-----------------|------------------| Gtr  
|-----------------|------------------|  I 
|-2-3-2-0---0-3-2-|-2-3-2-0---0-3-2--|  
|---------1-------|---------1--------|  
|                                    | 
|-----------------|------------------|  
|-----------------|------------------|  
|-----------------|------------------| Gtr  
|-----------------|-9-109-7---7-10-9-|  II 
|-2-3-2-0---0-3-2-|---------8--------|  
|---------1-------|------------------|  


Repeat Riff 5  


Riff 6    2 times 
|-----------------|------------------|------------------| 
|-----------------|------------------|------------------|  
|-----------------|------------------|------------------| Gtr  
|-----------------|------------------|----------444-----|  I 
|-2-3-2-0---0-3-2-|-2-3-2-0---0-3-2--|-2-3-2-0--222-----|  
|---------1-------|---------1--------|------------------|  
|                                                       | 
|-----------------|------------------|------------------|  
|-----------------|------------------|------------------|  
|-----------------|------------------|------------------| Gtr  
|-----------------|-9-109-7---7-10-9-|-9-109-7--444-----|  II 
|-2-3-2-0---0-3-2-|---------8--------|----------222-----|  
|---------1-------|------------------|------------------|  

  
  
Riff 7 (classical)  
|-------------------|  
|-------------------| 1st time Gtr I plays Riff 7 alone,  
|---7---7---7--7--7-| then afterwards both gtrs play Riff 7. 
|--7---7---7--------|  
|-5-----------------|  
|-----5---6---5--0--|  
  
  
  
Riff 8  (classical)?????????????????????????????????????????  
|----------------------------------------------------|  
|----------------------------------------------------|  
|----------------------------------------------------| Gtrs  
|----------------------------------------------------|  I&II 
|----------------------------------------------------|  
|----------------------------------------------------|  
??????????????????????????????????????????????????????????????  
  
Riff 7  
Riff 8   
with chords:  
  
|-------------------------|  
|-------------------------|  
|-------------------------| Gtrs 
|-------------------------|  I&II 
|-9----4--5--9----4--5--2-|  
|-7----2--3--7----2--3--0-|  
  

Riff 9  
|---------------------------|  
|---------------------------|  
|---------------------------| Gtr  
|---------------------------|  I 
|----9-9-9--------9--9------|  
|-7-7-7----7-10-10-10--10-10|  
  
  
Riff 10  
|-------------------------|  
|-------------------------|  
|-------------------------| Gtr  
|---7-6-4-5-4-------------|  I 
|-4-----------5--4--0-----|    *(not exact timing ) 
|---------------------2---|    *(between both Gtrs) 
|                         | 
|-------------------------|  
|-------------------------|  
|-------------------------| Gtr  
|--------9-7---11-11-7----|  II 
|-7----------9------------|  
|---10-9------------------|  
  
  
Riff 11  
|-----------------------------------------------|  
|-----------------------------------------------|  
|-----------------------------------------------| Gtr  
|------------------------------9-7---11-11-7----|  I 
|-9--7----7-9--7----7-7-------------9-----------|  
|------10--------10-------10-9------------------|  
|                                               | 
|-----------------------------------------------|  
|-----------------------------------------------|  
|-----------------------------------------------| Gtr  
|-----------------------------------------------|  II 
|-----------------------------------------------|  
|-----------------------------------------------|  
  

Riff 12  
|---------------------------------------------------|  
|---------------------------------------------------|  
|---------------------------------------------------| Gtr I  
|---------------------------------------------------|  
|----9-9-9--------9--9--------11-12-11-10-9\5-4-0---|  
|-7-7-7----7-10-10-10--10-9-9---9-----9-----------2-|  
|                                                   | 
|---------------------------------------------------|  
|---------------------------------------------------|  
|---------------------------------------------------| Gtr II 
|--------------------------------------------<7--<9-|(volume swells)  
|--<9----------<5---------<7------------------------|  
|---------------------------------------------------|  


|---------------------------------------------------|  
|---------------------------------------------------|  
|---------------------------------------------------| Gtr I 
|---------------------------------------------------|   
|----9-9-9--------9--9--------11-12-11-10-9\5-4-0---|  
|-7-7-7----7-10-10-10--10-9-9---9-----9-----------2-|  
|                                                   | 
|---------------------------------------------------|  
|---------------------------------------------------|  
|---------------------------------------------------| Gtr II 
|-<11---------------------------------7-5-4---------|(volume swells)  
|-------------------------------------------5-4---2-|  
|-----------------------------------------------2---|  

  
|----------------------------------------------------|  
|----------------------------------------------------|  
|------------7-5-------------------------------------| Gtr 
|-7------8-8-----8-7-----7-----------7-8-7-5---------|  I 
|-5---7--------------------------------------8-7-7---|  
|-----5----------------------------------------5-5---|  
|                                                    | 
|----------------------------------------------------|  
|----------------------------------------------------|  
|----------------------------------------------------| Gtr   
|--------------------7-8-7-5-------------------------|  II 
|-8----7---10----8-----------8-7-8-77------7-7-------|  
|------------------------------------------5-5-------|  

  
|----------------------------------------------------------------|  
|----------------------------------------------------------------|  
|--------------------7-5-----------------------------------------| Gtr  
|-7--------------8-8-----8-7-777-7-8-7-5---------------7-5-7-8-77|  I 
|-5-5555--7------------------------------8-7-8-77--5-7-----------|   
|---------5-5555----------------------------------5--------------|  
|                                                                | 
|----------------------------------------------------------------|  
|----------------------------------------------------------------|  
|----------------------------------------------------------------| Gtr  
|-----------------5-5555---------7-8-7-5---------------7-5-7-8-7-|  II 
|-8-8888--7-7777----------8-8888---------8-7-8-77--5-7----------8|  
|-------------------------------------------------5--------------|  
  
  
  
Riff 13       4 times              4 times              4 times  
|--------------------|--------------------|--------------------|------|  
|--------------------|--------------------|--------------------|------|  
|--------------------|--------------------|--------------------|------|  
|---7-6-666-6-7-6---6|--------------------|--------------------|------|    
|-5---------------5--|---7-6-666-6-7-6---6|---5-4-444-4-5-4---4|-2-2-2|  
|--------------------|-5---------------5--|-3---------------3--|-0-0-0|  


                        4 times                  4 times  
|------------------------------|------------------------|  
|------------------------------|------------------------|  
|------------------------------|------------------------|  
|------------------------------|--9-h(9)\---------------|  
|-5/666\555/101010\999\55/66\55|----------2-2-2-222-2-2-|  
|------------------------------|----------0-0-0-000-0-0-|  
  
repeat twice then once again the 1st part.   
  
then  
  
Riff 14                                 
|----------------------------------|  
|---------0-----------------0------|  
|-------2---2-------------2---2----| Gtr 
|-----3-------3---------3-------3--|  I 
|---0-----------0-----0-----------0|  
|-0---------------1-0--------------|  
|                                  | 
|----------------------------------|  
|----------------------------------|  
|----------------------------------| Gtr II  
|----------------------------------| plays smtg like this 
|-7--5--3--2--3--0--2--0-----------| with volume swells  
|-------------------------1--0-----|  
  <  <  <  <  <  <  <  <  <  <   
  
  
Riff 15         X 4  
|----------------------------------|  
|---------0-----------------0------|  
|-------2---2-------------2---2----| Gtrs 
|-----3-------3---------3-------3--|  I&II 
|---0-----------0-----0-----------0|  
|-0---------------1-0--------------|  
  
  
Riff 16          X 4  
|---------------------|  
|---------------------|  
|-----5-----5---5---5-|Gtrs  
|---5-----5-----------| I&II 
|-3-----4-------------|  
|-------------4---3---|  
  
  
Riff 17   
|-------0-------|  
|-----0---0-----|  
|---5-------5---| Gtrs  
|-7-----------7-|  I&II 
|---------------|  
|---------------|  

repeat 11 times with decrescendo.
Suggest correction
What's this?
You can suggest a correction to this tab. Community and Mods will review your correction and vote to approve or reject it.
comments
print report bad tab
guest
You may want to rate the tab now too:
select rating
Please do not post tabs as comments. Select "correction" instead!