Oops, an error
Loading. Please wait.

Atonement Tab

version 2
version 2

Whole song

Interactive

3,400 views 1 this week
2 commentsread comments
1 2 3 4 5
2 more votes to show rating
add to favorites
launch autoscroll
font size
0
reset
how to read this tab
guitar tuner
Autoscroll
slow
fast
+/-
esc
set tempo
stop
Help us to improve Ultimate-Guitar.com Take our survey!
×
Author
Difficulty
intermediate
         Atonement guitar outro
As recorded by Opeth from the Album GHOST REVERIES

Transcribed by Arnstein Aas, Norway

h  = Hammer-on
p  = pull-off

Standard tuning

05:24

  Gtr I

||--10-10-10-10---5--5--5--5----8---8---8---8---3--3--3--3---5--5--|
||--10-10-10-10---5--5--5--5----9---9---9---9---4--4--4--4---5--5--|
||--10-10-10-10---5--5--5--5---10--10--10--10---5--5--5--5---5--5--|
||-----------------------------------------------------------7-----|
||-----------------------------------------------------------------|
||-----------------------------------------------------------------|
||
|| Gtr II (With delay pedal)
||
||-----------------------------------------------------------17----|
||--------------------------------------------------------------17-|
||-----------------------------------------------------------------|
||-----------------------------------------------------------------|
||-----------------------------------------------------------------|
||-----------------------------------------------------------------|

  Gtr I

|-----------------------------------5--5---------------------------|
|--5--------------------------------5--5--5------------------------|
|--5h7p5---------------------9------5--5--5h7p5--------------------|
|---------7(hold)s9---------10--10--7------------7(hold)s9---------|
|--------------------7s8s9----------------------------------7s8s9--|
|------------------------------------------------------------------|
|
| Gtr II (With delay pedal)
|
|--17----------------12-------------------17----17-----------------|
|-----15-17-17-15-13----12-13-10-12-12-10----17----15-17-17-15-13--|
|------------------------------------------------------------------|
|------------------------------------------------------------------|
|------------------------------------------------------------------|
|------------------------------------------------------------------|


|-----------------------------------------------------------------||
|-----------------------------------------------------------------||
|---9-------------------------------------------------------------||
|--10-------------------------------------------------------------|| 
|-----------------------------------------------------------------||
|-----------------------------------------------------------------||
|                                                                 || 
| Gtr II (With delay pedal)                                       || x 6
|                                                                 ||
|--12-------------------------------------------------------------||
|-----12-13-10-12-12-10-10(hold)----------------------------------||
|-----------------------------------------------------------------||
|-----------------------------------------------------------------||
|-----------------------------------------------------------------||
|-----------------------------------------------------------------||


Suggest correction
Give kudos to tab author, rate the tab!
1 2 3 4 5
comments
print report bad tab
2 comments total.
0 reply
Ashratempel 267 Oct 16, 2014 07:39 AM

||--10-10-10-10---5--5--5--5----8---8---8---8---3--3--3--3---5--5--|
||--10-10-10-10---5--5--5--5----6---6---6---6---1--1--1--1---5--5--|
||--10-10-10-10---5--5--5--5----5---5---5---5---0--0--0--0---5--5--|
||--12-12-12-12---7--7--7--7---------------------------------7-----|
||-----------------------------------------------------------------|
||-----------------------------------------------------------------|

0 reply
Aurora Borealis 160 Nov 18, 2016 02:16 AM

||--10-10-10-10---5--5--5--5----8---8---8---8---3--3--3--3---10--10--|
||--10-10-10-10---5--5--5--5----8---8---8---8---3--3--3--3---10--10--|
||--7--7--7--7----2--2--2--2----5---5---5---5---0--0--0--0---7--7----|
||--7--7--7--7----2--2--2--2----5---5---5---5---0--0--0--0---7--7----|
||--8--8--8--8----3--3--3--3----6---6---6---6---3--3--3--3---8--8----|
||-------------------------------------------------------------------|

guest
You may want to rate the tab now too:
select rating
Wanna post a correction for this tab? Suggest correction