Oops, an error
Loading. Please wait.

Bleak Tab

version 1
version 1

Whole song

Interactive

60,039 views 75 this week
4 commentsread comments
1 2 3 4 5
x 14
add to favorites
launch autoscroll
font size
0
reset
how to read this tab
guitar tuner
Autoscroll
slow
fast
+/-
esc
set tempo
stop
Help us to improve Ultimate-Guitar.com Take our survey!
×
Author
Opeth - Bleak
"Blackwater Park"

Gtr.1 (w/dist., tacet)
e|-----------------|-----------------|-----------------|-----------------|
B|(0)--------------|<0>--------------|<0>--------------|<0>--------------|
G|-4---------------|<4>--------------|<4>--------------|<4>--------------|
D|-----------------|-----------------|-----------------|-----------------|
A|-----------------|-----------------|-----------------|-----------------|
E|-----------------|-----------------|-----------------|-----------------|

Gtr.3 (acoustic w/pick)
e|-0---------------|-----------------|-0---------------|-----------------|
B|-11--------------|-----------------|-11--------------|-----------------|
G|-9---------------|------(rest)-----|-9---------------|------(rest)-----|
D|-8---------------|-----------------|-8---------------|-----------------|
A|-7---------------|-----------------|-7---------------|-----------------|
E|-0---------------|-----------------|-0---------------|-----------------|

Gtr.2 (w/dist.)
e|-----------------|-----------------|-----------0-----|<0>--------------|
B|-----------------|-----------------|-----------11----|<11>-------------|
G|-----------------|-----------------|-----------------|-----------------|
D|-2---------------|<2>--------------|<2>--------------|-----------------|
A|-2---------------|<2>--------------|<2>--------------|-----------------|
E|-0---------------|<0>--------------|<0>-------<0>----|<0>--------------|

Gtr.4
e|-----------------|-----------------|-----------------|-----------------|
B|--(0)------------|<0>--------------|<0>--------------|<0>--------------|
G|---4-------------|<4>--------------|<4>--------------|<4>--------------|
D|-----------------|-----------------|-----------------|-----------------|
A|-----------------|-----------------|-----------------|-----------------|
E|-----------------|-----------------|-----------------|-----------------|

 Gtr.3                       
e|-0-------|---------|---------------0-0-0-0-0---0-0---|-----------------|
B|-11------|---------|-----------11----0-0-0-0---0-0---|-----------------|
G|-9-------|--(rest)-|---------9-------1212129---9-3---|s6-s8-s10s8-s10--|
D|-8-------|---------|-------8---------x-x-x-x---x-x---|-x--x--x--x--x---|
A|-7-------|---------|-----7-----------1010107---7-1---|s4-s6-s8-s6-s8---|
E|-0-------|---------|-0-------------------------------|-----------------|
                                                        >  >  >  >  >

 Gtr.2                                                           gtrs.1&2
e|-----------------|-----------------|-----------------|-----------------|
B|-----------------|-----------------|-----------------|-----------------|
G|-----------------|-----------------|-----------------|-----------------|
D|-----------------|-----------------|-----------------|-----------------|
A|-----------------|-----------------|-----------------|----------/xx\---|
E|<0>--------------|-0---------------|<0>--------------|<0>-------/xx\---|

 Gtr.2
e|---------------------------------|---------------------------------|
B|*-----hp-------------------------|------hp-------------------------|
G|-----454---4-----4h5p4-----------|-----454---4-----4h5p4-----------|
D|---------7---7-6-------------6---|---------7---7-6-------------6-7-|
A|*----------------------8-7-8-----|-----------------------8-7-8-----|
E|(0)------------------------------|(0)------------------------------|

 Gtr.1                                   
e|---------------------------------|---------------------------------|
B|*--------------------------------|---------------------------------|
G|---------------------------------|---------------------------------|
D|-2-------------------------------|-2-------------------------------|
A|*2-------------------------------|-2-------------------------------|
E|-0-------------------------------|-0-------------------------------|
  >                                 >

 Segno
 Gtr.2                               *=you can also play this starting 
                                       from D string instead of G.
e|---------------------------------|---------------------------------|
B|------hp-------------------------|-*------------------------------*|
G|-----454---4-----4h5p4-----------|-3h4p3---------------------------|
D|---------7---7-6-------------6---|-------5-4-2-5-4---2-4-2-1-------|
A|-----------------------8-7-8-----|---------------------------2~---*|
E|(0)------------------------------|---------------------------------|      
Gtr.1                                     pm.....>

e|---------------------------------|---------------------------------|
B|---------------------------------|--------------------------------*|
G|---------------------------------|-----------(look above)----------|
D|-2-------------------------------|---------------------------------|
A|-2-------------------------------|--------------------------------*|
E|-0-------------------------------|---------------------------------|
  >

 Gtr.3
e|---------------------------------|---------------------------------|
B|---------------------------------|---------------------------------|
G|-------------(rest)--------------|---7s9---9s8---9---10--13--------|
D|---------------------------------|---x-x---x-x---x---x---x---------|
A|---------------------------------|---5s7---7s6---7---8---11--------|
E|---------------------------------|---------------------------------|

 Gtr.2   *=first time only
e|s19----------17------------------|-16------------------------------|
B|*12*---------10*-----------------|---------------17-gb-18----------|
G|---------------------------------|---------------------------------|
D|---------------------------------|---------------------------------|
A|*--------------------------------|---------------------------------|
E|---------------------------------|---------------------------------|

 Gtr.1
e|---------------------------------|---------------------------------|
B|---------------------------------|---------------------------------|
G|---------------------------------|---------------------------------|
D|-2-------------------------------|---------------------------------|
A|-2-------------------------------|---------------------------------|
E|-0-------------------------------|-----------------------------0-1-|

Gtr.3 (tacet)

 Gtr.2   *=by add. gtr. 3rd time    1.-3............................>
e|---------------------------------|---------------------------------|
B|<18>-----------------------------|-17~----------------------------*|
G|-9b10~*--------------------------|-9~*-----------------------------|
D|---------------------------------|---------------------------------|
A|---------------------------------|--------------------------------*|
E|---------------------------------|---------------------------------|

 Gtr.1                              1.-3............................>
e|---------------------------------|---------------------------------|
B|---------------------------------|---------------------------------|
G|---------------------------------|---------------------------------|
D|-6---6-6-6s7s6s7---6---6-3---3---|-2-------------------------------|
A|-x---x-x-x-x-x-x---x---x-x---x---|-2-------------------------------|
E|-4---4-4-4s5s4s5---4---4-1---1---|-0-------------------------------|
4. ending

Gtr.3 (tacet)

 Gtr.2
e|---------------------------------|
B|-17~-----------------------------|
G|---------------------------------|
D|---------------------------------|
A|---------------------------------|
E|---------------------------------|

 Gtr.1
e|---------------------------------|
B|---------------------------------|
G|---------------------------------|
D|-2-----------------6-------------|
A|-2-------------------8-7-5-------|
E|-0-------------------------8-7-5-|
                    pm...........>

 Gtr.2
e|---------------------------------|---------------------------------|
B|---------------------------------|---------------------------------|
G|-13----13131313----13131312--13--|-12----1212xs7-----7-7-7-7---7---|
D|-x-----x-x-x-x-----x-x-x-x---x---|-x-----x-x-x-x-----x-x-x-x---x---|
A|-11----11111111----11111110--11--|-10----1010xs5-----5-5-5-5---5---|
E|---------------------------------|---------------------------------|

 Gtr.1
e|---------------------------------|---------------------------------|
B|-4-----4-x-x-4-----4-4-4-4---4-4-|-3-------------------------------|
G|-4-----4-x-x-4-----4-4-4-4---4-4-|-4-------------------------------|
D|-6-----6-x-x-6-----6-6-6-6---6-6-|-5-(sim. to previous bar)--------|
A|-6-----6-x-x-6-----6-6-6-6---6-6-|-5-------------------------------|
E|-4-----4-x-x-4-----4-4-4-4---4-4-|-3-------------------------------|

 Gtr.2
e|---------------------------------|---------------------------------|
B|---------------------------------|---------------------------------|
G|-11----1111111-----11111s7---7-7-|s10----10101010----10101010--10--|
D|-x-----x-x-x-x-----x-x-x-x---x-x-|-x-----x-x-x-x-----x-x-x-x---x---|
A|-9-----9-9-9-9-----9-9-9s5---5-5-|s8-----8-8-8-8-----8-8-8-8---8---|
E|---------------------------------|---------------------------------|

 Gtr.1
e|---------------------------------|---------------------------------|
B|-7-----7-x-x-7-----7-7-7-7gs-----|-1-------------------------------|
G|-7-----7-x-x-7-----7-7-7-7gs-----|-2-------------------------------|
D|-9-----9-x-x-9-----9-9-9-9gs-----|-3-(sim. to G#m&G strumming)-----|
A|-9-----9-x-x-9-----9-9-9---------|-3-------------------------------|
E|-7-----7-x-x-7-----7-7-7---------|-1-------------------------------|

 Gtr.1 repeats last 4 bars
 Gtr.2
e|---------------------------------|---------------------------------|
B|---------------------------------|---------------------------------|
G|-13----13131313----13131315--16--|-15----1515xs7-----7-7-7-7---7-7-|
D|-x-----x-x-x-x-----x-x-x-x---x---|-x-----x-x-x-x-----x-x-x-x---x-x-|
A|-11----11111111----11111113--14--|-13----1313xs5-----5-5-5-5---5-5-|
E|---------------------------------|---------------------------------|

 Gtr.2                                                   D.S. al Coda
                                                         (To segno)
e|---------------------------------|---------------------------------|
B|---------------------------------|---------------------------------|
G|-6-----6-6-x-7-----7-7-7-4---4---|-5-----5-5-5-5-----5-5-5-5---5---|
D|-x-----x-x-x-x-----x-x-x-x---x---|-x-----x-x-x-x-----x-x-x-x---x---|
A|-4-----4-4-x-5-----5-5-5-2---2---|-3-----3-3-3-3-----3-3-3-3---3---|
E|---------------------------------|---------------------------------|

 Gtr.3   *=let all notes ring
e|---------0-----------------------|
B|*-------------------------------*|
G|----10---------------------------|
D|---9---9-------------------------|
A|**---------8p7------------------*|
E|-0-------------------------------|

 Gtr.3 (acoustic w/pick)
e|-------------2-------------------|---|-3---3-3---3-3-----3-------------|
B|*------3--(3)2-------------------|---|-3---3-3---3-3-----3------------*|
G|(4)-(4)4--(4)4---------------0---|-%-|-0---0-0---0-2-----2-2p0---------|
D|-4--(4)4--(4)4-----------4-----4-|---|-0---0-0---0-0-----0-----3---0h3-|
A|*2--(2)2--(2)2---------2---------|---|-x---x-x---x-x-----x-------3----*|
E|---------------------3-----------|---|-3---3-3---3-3-----3-------------|   
  
 Last ending                   gtr.gtr. 5 (acoustic, finger picked)
 9/8                           out      4/4
e|-3---3-3---3-3-----3---------0-------|---------------------------------|
B|-3---3-3---3-3-----3-----------------|---------------------------------|
G|-0---0-0---0-2-----2-----0-------5---|<5>--4-------4-------2-------2---|
D|-0---0-0---0-0-----0-2s4---4-----7---|<7>--7-------1-------1-------2---|
A|-x---x-x---x-x-----x-------------0---|<0>-----(x)--2----------(x)------|
E|-3---3-3---3-3-----3-----------------|-----------------------------0---|
                                       
e|---------------------------------|---------------------------------|
B|---------------------------------|---------------------------------|
G|<2>--0-------0-------------------|-------4-5h4-------------4---5---|
D|<2>--2---4s5---------2-----------|-2s4-5-------5h4-------2---------|
A|-----------------0h2-------------|-----------------0---------0-----|
E|<0>---(0)--------------2---0-3---|---------------------------------|

e|---------------------------------|-------------3--<3>-------------->
B|---------------------------------|-------4---4---------------------<
G|---4-----2-----------4-----------|-----4--------------------------->
D|-------------------4---------1---|<1>4-----------------------------<
A|-0-----0---------2-----3---------|---------2----------------------->
E|---------------------------------|---------------------------------<

 Solo w/semi clean electric
e|---------------------------------|---------------------------------|
B|---------------------------------|---------------------------------|
G|---------------------------------|-----------------------14b16rb16-|
D|------------s14------------------|---------------------------------|
A|---------------------------------|---------------------------------|
E|---------------------------------|---------------------------------|

 Acoustic w/fingers
e|---------------------------------|---------------------------------|
B|*--------------------------------|---------------------0----------*|
G|-----------0---------------------|---------0-------0-----0---------|
D|---------2---4-----------2-------|-------4---4---4---4-------------|
A|*--------------------------------|s4-----------3------------------*|
E|-0-----------------0---0---------|-------------------------3-2-----|

 Acoustic cont. sim.                *=pre-bent from 11th fret
e|---------------------------------|---------------------------------|
B|---------------------15----------|-------------*-------------------|
G|--------------(hold)b16r14--|<14>---------b12r11--------------|
D|---------------------------------|---------------------------------|
A|---------------------------------|---------------------------------|
E|---------------------------------|---------------------------------|

 Acoustic cont.sim.
e|---------------------------------|---------------------------------|
B|-----------------------p---------|---------------------------------|
G|<11>---------------111211--11214-|-11----12------------------------|
D|---------------1214------14------|-------------------------s14~----|
A|-------------14------------------|---------------------------------|
E|---------------------------------|---------------------------------|

 Acoustic cont. sim.                *=two triplets
e|---------------------------------|-----------*---------------------|
B|---------------------------------|--*-------17-15------------------|
G|----------------------------14---|-16----14-------14-16------------|
D|<14>--------------------------14-|----14---------------------------|
A|---------------------------------|---------------------------------|
E|---------------------------------|---------------------------------|

 The dist. riff (chords)
 Esus9  
e|-------------------------|
B|-------------------------|
G|-4-----5-----6-----5-----|
D|-4-----4-----4-----4-----|
A|-2-----3-----4-----3-----|
E|-0-----0-----0-----0-----|


************************************

| (n)  Ghost note
| x    Dead note
| >    Accented note
| *    Natural harmonic
| h    Hammer-on
| p    Pull-off
| ~    Vibrato
| b    Bend
| r    Release

************************************

Comments, Corrections, Hate Mail and Death Threats to-
clangerfreak@hotmail.com

~*jinxx*~
Suggest correction
comments
print report bad tab
4 comments total. Showing first comments.
0 reply
strong_wizard 407 Apr 19, 2006 07:07 PM

I love that acoustic, can't quite play it and am wishing I can, however I did notice something.

|-3---3-3---3-3-----3---------0-------|---------------------------------|
|-3---3-3---3-3-----3-----------------|---------------------------------|
|-0---0-0---0-2-----2-----0-------5---|--4-------4-------2-------2---|
|-0---0-0---0-0-----0-2s4---4-----7---|--7-------1-------1-------2---|
|-x---x-x---x-x-----x-------------0---|-----(x)--2----------(x)------|
|-3---3-3---3-3-----3-----------------|-----------------------------0---|

I think there's just a tiny bit extra in the beginning of the picking.

|-3---3-3---3-3-----3---------0-------|---------------------------------|
|-3---3-3---3-3-----3-----------------|---------------------------------|
|-0---0-0---0-2-----2-----0--0----5---|--4-------4-------2-------2---|
|-0---0-0---0-0-----0-2s4---4-----7---|--7-------1-------1-------2---|
|-x---x-x---x-x-----x-------------0---|-----(x)--2----------(x)------|
|-3---3-3---3-3-----3-----------------|-----------------------------0---|

0 reply
Kid Fisto 151 Jan 26, 2008 08:44 AM

you're missing the end, and it's a little hard to follow, but other than that it's okay.

0 reply
Bleak92 10 Jul 10, 2009 10:58 PM

there's heaps missing. its a 9 minute song and there's definitely not 9 minutes of material here. its good for the first part until the end of the chorus.

guest
You may want to rate the tab now too:
select rating
Wanna post a correction for this tab? Suggest correction